ISO-10303-21;
HEADER;
FILE_DESCRIPTION (( 'STEP AP203' ),
    '1' );
FILE_NAME ('Ãèëüçà àëþìèíèåâàÿ GL-10-4,5 (ÃÀ) EKF.STEP',
    '2016-12-30T10:38:17',
    ( 'kuryshev' ),
    ( '' ),
    'SwSTEP 2.0',
    'SolidWorks 2010',
    '' );
FILE_SCHEMA (( 'CONFIG_CONTROL_DESIGN' ));
ENDSEC;

DATA;
#1 = AXIS2_PLACEMENT_3D ( 'NONE', #234, #235, #236 ) ;
#2 = AXIS2_PLACEMENT_3D ( 'NONE', #161, #168, #170 ) ;
#3 = AXIS2_PLACEMENT_3D ( 'NONE', #186, #189, #190 ) ;
#4 = AXIS2_PLACEMENT_3D ( 'NONE', #181, #180, #176 ) ;
#5 = ADVANCED_FACE ( 'NONE', ( #61 ), #64, .F. ) ;
#6 = ORIENTED_EDGE ( 'NONE', *, *, #348, .F. ) ;
#7 = ORIENTED_EDGE ( 'NONE', *, *, #341, .F. ) ;
#8 = CLOSED_SHELL ( 'NONE', ( #5, #153, #152, #154, #151, #150, #149, #148, #147, #339 ) ) ;
#9 = ORIENTED_EDGE ( 'NONE', *, *, #345, .T. ) ;
#10 = ORIENTED_EDGE ( 'NONE', *, *, #295, .F. ) ;
#11 = FACE_OUTER_BOUND ( 'NONE', #55, .T. ) ;
#12 = ORIENTED_EDGE ( 'NONE', *, *, #347, .F. ) ;
#13 = FACE_OUTER_BOUND ( 'NONE', #60, .T. ) ;
#14 = ORIENTED_EDGE ( 'NONE', *, *, #349, .T. ) ;
#15 = ORIENTED_EDGE ( 'NONE', *, *, #344, .F. ) ;
#16 = ORIENTED_EDGE ( 'NONE', *, *, #296, .F. ) ;
#17 = ORIENTED_EDGE ( 'NONE', *, *, #295, .T. ) ;
#18 = ORIENTED_EDGE ( 'NONE', *, *, #346, .T. ) ;
#19 = ORIENTED_EDGE ( 'NONE', *, *, #298, .F. ) ;
#20 = ORIENTED_EDGE ( 'NONE', *, *, #301, .F. ) ;
#21 = ORIENTED_EDGE ( 'NONE', *, *, #348, .T. ) ;
#22 = ORIENTED_EDGE ( 'NONE', *, *, #300, .T. ) ;
#23 = ORIENTED_EDGE ( 'NONE', *, *, #299, .T. ) ;
#24 = ORIENTED_EDGE ( 'NONE', *, *, #302, .F. ) ;
#25 = ORIENTED_EDGE ( 'NONE', *, *, #344, .T. ) ;
#26 = ORIENTED_EDGE ( 'NONE', *, *, #342, .T. ) ;
#27 = ORIENTED_EDGE ( 'NONE', *, *, #305, .T. ) ;
#28 = ORIENTED_EDGE ( 'NONE', *, *, #303, .T. ) ;
#29 = ORIENTED_EDGE ( 'NONE', *, *, #301, .T. ) ;
#30 = ORIENTED_EDGE ( 'NONE', *, *, #347, .T. ) ;
#31 = ORIENTED_EDGE ( 'NONE', *, *, #306, .F. ) ;
#32 = ORIENTED_EDGE ( 'NONE', *, *, #299, .F. ) ;
#33 = ORIENTED_EDGE ( 'NONE', *, *, #300, .F. ) ;
#34 = ORIENTED_EDGE ( 'NONE', *, *, #305, .F. ) ;
#35 = ORIENTED_EDGE ( 'NONE', *, *, #302, .T. ) ;
#36 = ORIENTED_EDGE ( 'NONE', *, *, #306, .T. ) ;
#37 = ORIENTED_EDGE ( 'NONE', *, *, #346, .F. ) ;
#38 = ORIENTED_EDGE ( 'NONE', *, *, #297, .T. ) ;
#39 = ORIENTED_EDGE ( 'NONE', *, *, #298, .T. ) ;
#40 = ORIENTED_EDGE ( 'NONE', *, *, #304, .T. ) ;
#41 = ORIENTED_EDGE ( 'NONE', *, *, #349, .F. ) ;
#42 = ORIENTED_EDGE ( 'NONE', *, *, #297, .F. ) ;
#43 = ORIENTED_EDGE ( 'NONE', *, *, #296, .T. ) ;
#44 = ORIENTED_EDGE ( 'NONE', *, *, #342, .F. ) ;
#45 = ORIENTED_EDGE ( 'NONE', *, *, #345, .F. ) ;
#46 = ORIENTED_EDGE ( 'NONE', *, *, #304, .F. ) ;
#47 = ORIENTED_EDGE ( 'NONE', *, *, #341, .T. ) ;
#48 = ORIENTED_EDGE ( 'NONE', *, *, #303, .F. ) ;
#49 = EDGE_LOOP ( 'NONE', ( #10, #14, #15, #16 ) ) ;
#50 = EDGE_LOOP ( 'NONE', ( #25, #26 ) ) ;
#51 = EDGE_LOOP ( 'NONE', ( #30, #28 ) ) ;
#52 = EDGE_LOOP ( 'NONE', ( #27, #29 ) ) ;
#53 = EDGE_LOOP ( 'NONE', ( #45, #46, #47, #48 ) ) ;
#54 = EDGE_LOOP ( 'NONE', ( #17, #18, #21, #19 ) ) ;
#55 = EDGE_LOOP ( 'NONE', ( #37, #38, #39, #40 ) ) ;
#56 = EDGE_LOOP ( 'NONE', ( #6, #9, #12, #7 ) ) ;
#57 = EDGE_LOOP ( 'NONE', ( #33, #34, #35, #36 ) ) ;
#58 = EDGE_LOOP ( 'NONE', ( #20, #22, #23, #24 ) ) ;
#59 = EDGE_LOOP ( 'NONE', ( #31, #32 ) ) ;
#60 = EDGE_LOOP ( 'NONE', ( #41, #42, #43, #44 ) ) ;
#61 = FACE_OUTER_BOUND ( 'NONE', #56, .T. ) ;
#62 = CONICAL_SURFACE ( 'NONE', #337, 2.250000000000000000, 0.7853981633974528300 ) ;
#63 = FACE_OUTER_BOUND ( 'NONE', #57, .T. ) ;
#64 = CONICAL_SURFACE ( 'NONE', #2, 3.250000000000002700, 0.7853981633974492800 ) ;
#65 = FACE_OUTER_BOUND ( 'NONE', #52, .T. ) ;
#66 = FACE_BOUND ( 'NONE', #51, .T. ) ;
#67 = FACE_BOUND ( 'NONE', #50, .T. ) ;
#68 = CYLINDRICAL_SURFACE ( 'NONE', #4, 2.250000000000000000 ) ;
#69 = FACE_OUTER_BOUND ( 'NONE', #54, .T. ) ;
#70 = CYLINDRICAL_SURFACE ( 'NONE', #343, 4.250000000000000000 ) ;
#71 = FACE_OUTER_BOUND ( 'NONE', #59, .T. ) ;
#72 = VECTOR ( 'NONE', #219, 1000.000000000000100 ) ;
#73 = FACE_OUTER_BOUND ( 'NONE', #58, .T. ) ;
#74 = FACE_OUTER_BOUND ( 'NONE', #49, .T. ) ;
#75 = CONICAL_SURFACE ( 'NONE', #315, 3.250000000000002700, 0.7853981633974492800 ) ;
#76 = CYLINDRICAL_SURFACE ( 'NONE', #336, 2.250000000000000000 ) ;
#77 = VECTOR ( 'NONE', #224, 1000.000000000000000 ) ;
#78 = CONICAL_SURFACE ( 'NONE', #294, 2.250000000000000000, 0.7853981633974528300 ) ;
#79 = CYLINDRICAL_SURFACE ( 'NONE', #335, 4.250000000000000000 ) ;
#80 = LINE ( 'NONE', #213, #72 ) ;
#81 = CIRCLE ( 'NONE', #144, 2.250000000000000000 ) ;
#82 = VECTOR ( 'NONE', #229, 1000.000000000000000 ) ;
#83 = LINE ( 'NONE', #218, #77 ) ;
#84 = CIRCLE ( 'NONE', #293, 2.250000000000000000 ) ;
#85 = VECTOR ( 'NONE', #233, 1000.000000000000000 ) ;
#86 = LINE ( 'NONE', #217, #82 ) ;
#87 = CIRCLE ( 'NONE', #157, 4.250000000000000000 ) ;
#88 = LINE ( 'NONE', #225, #85 ) ;
#89 = CIRCLE ( 'NONE', #338, 4.250000000000000000 ) ;
#90 = FACE_OUTER_BOUND ( 'NONE', #53, .T. ) ;
#91 = CIRCLE ( 'NONE', #1, 3.250000000000002700 ) ;
#92 = LINE ( 'NONE', #258, #98 ) ;
#93 = CIRCLE ( 'NONE', #307, 2.250000000000000000 ) ;
#94 = CIRCLE ( 'NONE', #309, 4.250000000000000000 ) ;
#95 = CIRCLE ( 'NONE', #308, 4.250000000000000000 ) ;
#96 = LINE ( 'NONE', #249, #97 ) ;
#97 = VECTOR ( 'NONE', #250, 999.9999999999998900 ) ;
#98 = VECTOR ( 'NONE', #259, 999.9999999999998900 ) ;
#99 = CIRCLE ( 'NONE', #312, 3.250000000000009800 ) ;
#100 = LINE ( 'NONE', #251, #102 ) ;
#101 = CIRCLE ( 'NONE', #314, 3.250000000000009800 ) ;
#102 = VECTOR ( 'NONE', #261, 1000.000000000000000 ) ;
#103 = LINE ( 'NONE', #268, #104 ) ;
#104 = VECTOR ( 'NONE', #269, 1000.000000000000100 ) ;
#105 = CIRCLE ( 'NONE', #313, 3.250000000000002700 ) ;
#106 = CIRCLE ( 'NONE', #310, 2.250000000000000000 ) ;
#107 =( GEOMETRIC_REPRESENTATION_CONTEXT ( 3 ) GLOBAL_UNCERTAINTY_ASSIGNED_CONTEXT ( ( #146 ) ) GLOBAL_UNIT_ASSIGNED_CONTEXT ( ( #267, #264, #270 ) ) REPRESENTATION_CONTEXT ( 'NONE', 'WORKASPACE' ) );
#108 = SHAPE_DEFINITION_REPRESENTATION ( #156, #334 ) ;
#109 = ORGANIZATION ( 'UNSPECIFIED', 'UNSPECIFIED', '' ) ;
#110 = PERSON_AND_ORGANIZATION ( #159, #109 ) ;
#111 = PERSON_AND_ORGANIZATION ( #159, #109 ) ;
#112 = APPROVAL_PERSON_ORGANIZATION ( #111, #318, #281 ) ;
#113 = COORDINATED_UNIVERSAL_TIME_OFFSET ( 3, 0, .AHEAD. ) ;
#114 = LOCAL_TIME ( 13, 38, 17.00000000000000000, #113 ) ;
#115 = CALENDAR_DATE ( 2016, 30, 12 ) ;
#116 = DATE_AND_TIME ( #115, #114 ) ;
#117 = APPROVAL_DATE_TIME ( #116, #318 ) ;
#118 = PERSON_AND_ORGANIZATION ( #159, #109 ) ;
#119 = COORDINATED_UNIVERSAL_TIME_OFFSET ( 3, 0, .AHEAD. ) ;
#120 = LOCAL_TIME ( 13, 38, 17.00000000000000000, #119 ) ;
#121 = CALENDAR_DATE ( 2016, 30, 12 ) ;
#122 = DATE_AND_TIME ( #121, #120 ) ;
#123 = PERSON_AND_ORGANIZATION ( #159, #109 ) ;
#124 = APPROVAL_PERSON_ORGANIZATION ( #123, #323, #285 ) ;
#125 = COORDINATED_UNIVERSAL_TIME_OFFSET ( 3, 0, .AHEAD. ) ;
#126 = LOCAL_TIME ( 13, 38, 17.00000000000000000, #125 ) ;
#127 = CALENDAR_DATE ( 2016, 30, 12 ) ;
#128 = DATE_AND_TIME ( #127, #126 ) ;
#129 = APPROVAL_DATE_TIME ( #128, #323 ) ;
#130 = PERSON_AND_ORGANIZATION ( #159, #109 ) ;
#131 = PERSON_AND_ORGANIZATION ( #159, #109 ) ;
#132 = PERSON_AND_ORGANIZATION ( #159, #109 ) ;
#133 = COORDINATED_UNIVERSAL_TIME_OFFSET ( 3, 0, .AHEAD. ) ;
#134 = LOCAL_TIME ( 13, 38, 17.00000000000000000, #133 ) ;
#135 = CALENDAR_DATE ( 2016, 30, 12 ) ;
#136 = DATE_AND_TIME ( #135, #134 ) ;
#137 = PERSON_AND_ORGANIZATION ( #159, #109 ) ;
#138 = APPROVAL_PERSON_ORGANIZATION ( #137, #330, #292 ) ;
#139 = COORDINATED_UNIVERSAL_TIME_OFFSET ( 3, 0, .AHEAD. ) ;
#140 = LOCAL_TIME ( 13, 38, 17.00000000000000000, #139 ) ;
#141 = CALENDAR_DATE ( 2016, 30, 12 ) ;
#142 = DATE_AND_TIME ( #141, #140 ) ;
#143 = APPROVAL_DATE_TIME ( #142, #330 ) ;
#144 = AXIS2_PLACEMENT_3D ( 'NONE', #214, #215, #216 ) ;
#145 = MANIFOLD_SOLID_BREP ( 'Ôàñêà1', #8 ) ;
#146 = UNCERTAINTY_MEASURE_WITH_UNIT (LENGTH_MEASURE( 1.000000000000000100E-005 ), #267, 'distance_accuracy_value', 'NONE');
#147 = ADVANCED_FACE ( 'NONE', ( #13 ), #62, .F. ) ;
#148 = ADVANCED_FACE ( 'NONE', ( #11 ), #68, .F. ) ;
#149 = ADVANCED_FACE ( 'NONE', ( #63 ), #70, .T. ) ;
#150 = ADVANCED_FACE ( 'NONE', ( #66, #71 ), #187, .F. ) ;
#151 = ADVANCED_FACE ( 'NONE', ( #67, #65 ), #182, .T. ) ;
#152 = ADVANCED_FACE ( 'NONE', ( #69 ), #76, .F. ) ;
#153 = ADVANCED_FACE ( 'NONE', ( #74 ), #78, .F. ) ;
#154 = ADVANCED_FACE ( 'NONE', ( #73 ), #79, .T. ) ;
#155 = DESIGN_CONTEXT ( 'detailed design', #278, 'design' ) ;
#156 = PRODUCT_DEFINITION_SHAPE ( 'NONE', 'NONE',  #317 ) ;
#157 = AXIS2_PLACEMENT_3D ( 'NONE', #223, #226, #227 ) ;
#158 = PRODUCT ( 'Ãèëüçà àëþìèíèåâàÿ GL-10-4,5 (ÃÀ) EKF', 'Ãèëüçà àëþìèíèåâàÿ GL-10-4,5 (ÃÀ) EKF', '', ( #276 ) ) ;
#159 = PERSON ( 'UNSPECIFIED', 'UNSPECIFIED', 'UNSPECIFIED', ('UNSPECIFIED'), ('UNSPECIFIED'), ('UNSPECIFIED') ) ;
#160 = VERTEX_POINT ( 'NONE', #199 ) ;
#161 = CARTESIAN_POINT ( 'NONE',  ( 0.0000000000000000000, 0.0000000000000000000, 0.0000000000000000000 ) ) ;
#162 = VERTEX_POINT ( 'NONE', #203 ) ;
#163 = VERTEX_POINT ( 'NONE', #204 ) ;
#164 = VERTEX_POINT ( 'NONE', #205 ) ;
#165 = VERTEX_POINT ( 'NONE', #206 ) ;
#166 = VERTEX_POINT ( 'NONE', #207 ) ;
#167 = VERTEX_POINT ( 'NONE', #208 ) ;
#168 = DIRECTION ( 'NONE',  ( -0.0000000000000000000, -0.0000000000000000000, -1.000000000000000000 ) ) ;
#169 = DIRECTION ( 'NONE',  ( -1.000000000000000000, 0.0000000000000000000, 0.0000000000000000000 ) ) ;
#170 = DIRECTION ( 'NONE',  ( -1.000000000000000000, 0.0000000000000000000, 0.0000000000000000000 ) ) ;
#171 = VERTEX_POINT ( 'NONE', #209 ) ;
#172 = VERTEX_POINT ( 'NONE', #202 ) ;
#173 = VERTEX_POINT ( 'NONE', #210 ) ;
#174 = VERTEX_POINT ( 'NONE', #211 ) ;
#175 = VERTEX_POINT ( 'NONE', #212 ) ;
#176 = DIRECTION ( 'NONE',  ( -1.000000000000000000, 0.0000000000000000000, 0.0000000000000000000 ) ) ;
#177 = DIRECTION ( 'NONE',  ( 1.000000000000000000, 0.0000000000000000000, 0.0000000000000000000 ) ) ;
#178 = DIRECTION ( 'NONE',  ( 0.0000000000000000000, 0.0000000000000000000, 1.000000000000000000 ) ) ;
#179 = CARTESIAN_POINT ( 'NONE',  ( 0.0000000000000000000, 0.0000000000000000000, 52.00000000000000000 ) ) ;
#180 = DIRECTION ( 'NONE',  ( -0.0000000000000000000, -0.0000000000000000000, -1.000000000000000000 ) ) ;
#181 = CARTESIAN_POINT ( 'NONE',  ( 0.0000000000000000000, 0.0000000000000000000, 53.00000000000000000 ) ) ;
#182 = PLANE ( 'NONE',  #340 ) ;
#183 = DIRECTION ( 'NONE',  ( -0.0000000000000000000, -0.0000000000000000000, -1.000000000000000000 ) ) ;
#184 = CARTESIAN_POINT ( 'NONE',  ( 0.0000000000000000000, 0.0000000000000000000, 53.00000000000000000 ) ) ;
#185 = CARTESIAN_POINT ( 'NONE',  ( 0.0000000000000000000, 0.0000000000000000000, 53.00000000000000000 ) ) ;
#186 = CARTESIAN_POINT ( 'NONE',  ( 0.0000000000000000000, 0.0000000000000000000, 0.0000000000000000000 ) ) ;
#187 = PLANE ( 'NONE',  #3 ) ;
#188 = CARTESIAN_POINT ( 'NONE',  ( 0.0000000000000000000, 0.0000000000000000000, 53.00000000000000000 ) ) ;
#189 = DIRECTION ( 'NONE',  ( 0.0000000000000000000, 0.0000000000000000000, 1.000000000000000000 ) ) ;
#190 = DIRECTION ( 'NONE',  ( 1.000000000000000000, 0.0000000000000000000, -0.0000000000000000000 ) ) ;
#191 = DIRECTION ( 'NONE',  ( -0.0000000000000000000, -0.0000000000000000000, -1.000000000000000000 ) ) ;
#192 = DIRECTION ( 'NONE',  ( -1.000000000000000000, 0.0000000000000000000, 0.0000000000000000000 ) ) ;
#193 = DIRECTION ( 'NONE',  ( 0.0000000000000000000, 0.0000000000000000000, 1.000000000000000000 ) ) ;
#194 = DIRECTION ( 'NONE',  ( 1.000000000000000000, 0.0000000000000000000, -0.0000000000000000000 ) ) ;
#195 = DIRECTION ( 'NONE',  ( 1.000000000000000000, 0.0000000000000000000, 0.0000000000000000000 ) ) ;
#196 = DIRECTION ( 'NONE',  ( -1.000000000000000000, 0.0000000000000000000, 0.0000000000000000000 ) ) ;
#197 = DIRECTION ( 'NONE',  ( 0.0000000000000000000, 0.0000000000000000000, 1.000000000000000000 ) ) ;
#198 = CARTESIAN_POINT ( 'NONE',  ( 0.0000000000000000000, 0.0000000000000000000, 52.00000000000000000 ) ) ;
#199 = CARTESIAN_POINT ( 'NONE',  ( -3.250000000000009800, 3.980102097228909600E-016, 53.00000000000000000 ) ) ;
#200 = DIRECTION ( 'NONE',  ( -0.0000000000000000000, -0.0000000000000000000, -1.000000000000000000 ) ) ;
#201 = CARTESIAN_POINT ( 'NONE',  ( 0.0000000000000000000, 0.0000000000000000000, 53.00000000000000000 ) ) ;
#202 = CARTESIAN_POINT ( 'NONE',  ( 4.250000000000000000, 5.204748896376250700E-016, 53.00000000000000000 ) ) ;
#203 = CARTESIAN_POINT ( 'NONE',  ( -2.250000000000000000, 0.0000000000000000000, 1.000000000000000900 ) ) ;
#204 = CARTESIAN_POINT ( 'NONE',  ( 3.250000000000002700, 3.980102097228901700E-016, 0.0000000000000000000 ) ) ;
#205 = CARTESIAN_POINT ( 'NONE',  ( -3.250000000000002700, 0.0000000000000000000, 0.0000000000000000000 ) ) ;
#206 = CARTESIAN_POINT ( 'NONE',  ( -2.250000000000000000, 0.0000000000000000000, 52.00000000000000000 ) ) ;
#207 = CARTESIAN_POINT ( 'NONE',  ( 2.250000000000000000, 2.755455298081544300E-016, 52.00000000000000000 ) ) ;
#208 = CARTESIAN_POINT ( 'NONE',  ( 2.250000000000000000, 2.755455298081544300E-016, 1.000000000000000900 ) ) ;
#209 = CARTESIAN_POINT ( 'NONE',  ( 3.250000000000009800, 0.0000000000000000000, 53.00000000000000000 ) ) ;
#210 = CARTESIAN_POINT ( 'NONE',  ( -4.250000000000000000, 0.0000000000000000000, 53.00000000000000000 ) ) ;
#211 = CARTESIAN_POINT ( 'NONE',  ( 4.250000000000000000, 5.204748896376250700E-016, 0.0000000000000000000 ) ) ;
#212 = CARTESIAN_POINT ( 'NONE',  ( -4.250000000000000000, 0.0000000000000000000, 0.0000000000000000000 ) ) ;
#213 = CARTESIAN_POINT ( 'NONE',  ( 2.250000000000000000, 0.0000000000000000000, 52.00000000000000000 ) ) ;
#214 = CARTESIAN_POINT ( 'NONE',  ( 0.0000000000000000000, 0.0000000000000000000, 52.00000000000000000 ) ) ;
#215 = DIRECTION ( 'NONE',  ( 0.0000000000000000000, 0.0000000000000000000, 1.000000000000000000 ) ) ;
#216 = DIRECTION ( 'NONE',  ( 1.000000000000000000, 0.0000000000000000000, 0.0000000000000000000 ) ) ;
#217 = CARTESIAN_POINT ( 'NONE',  ( 4.250000000000000000, 5.204748896376250700E-016, 53.00000000000000000 ) ) ;
#218 = CARTESIAN_POINT ( 'NONE',  ( -2.250000000000000000, 0.0000000000000000000, 53.00000000000000000 ) ) ;
#219 = DIRECTION ( 'NONE',  ( 0.7071067811865507900, 0.0000000000000000000, 0.7071067811865442400 ) ) ;
#220 = CARTESIAN_POINT ( 'NONE',  ( 0.0000000000000000000, 0.0000000000000000000, 52.00000000000000000 ) ) ;
#221 = DIRECTION ( 'NONE',  ( 0.0000000000000000000, 0.0000000000000000000, 1.000000000000000000 ) ) ;
#222 = DIRECTION ( 'NONE',  ( 1.000000000000000000, 0.0000000000000000000, 0.0000000000000000000 ) ) ;
#223 = CARTESIAN_POINT ( 'NONE',  ( 0.0000000000000000000, 0.0000000000000000000, 0.0000000000000000000 ) ) ;
#224 = DIRECTION ( 'NONE',  ( -0.0000000000000000000, -0.0000000000000000000, -1.000000000000000000 ) ) ;
#225 = CARTESIAN_POINT ( 'NONE',  ( -4.250000000000000000, 0.0000000000000000000, 53.00000000000000000 ) ) ;
#226 = DIRECTION ( 'NONE',  ( 0.0000000000000000000, 0.0000000000000000000, 1.000000000000000000 ) ) ;
#227 = DIRECTION ( 'NONE',  ( 1.000000000000000000, 0.0000000000000000000, 0.0000000000000000000 ) ) ;
#228 = CARTESIAN_POINT ( 'NONE',  ( 0.0000000000000000000, 0.0000000000000000000, 53.00000000000000000 ) ) ;
#229 = DIRECTION ( 'NONE',  ( -0.0000000000000000000, -0.0000000000000000000, -1.000000000000000000 ) ) ;
#230 = DIRECTION ( 'NONE',  ( 0.0000000000000000000, 0.0000000000000000000, 1.000000000000000000 ) ) ;
#231 = DIRECTION ( 'NONE',  ( 1.000000000000000000, 0.0000000000000000000, 0.0000000000000000000 ) ) ;
#232 = CARTESIAN_POINT ( 'NONE',  ( 0.0000000000000000000, 0.0000000000000000000, 53.00000000000000000 ) ) ;
#233 = DIRECTION ( 'NONE',  ( -0.0000000000000000000, -0.0000000000000000000, -1.000000000000000000 ) ) ;
#234 = CARTESIAN_POINT ( 'NONE',  ( 0.0000000000000000000, 0.0000000000000000000, 0.0000000000000000000 ) ) ;
#235 = DIRECTION ( 'NONE',  ( 0.0000000000000000000, 0.0000000000000000000, 1.000000000000000000 ) ) ;
#236 = DIRECTION ( 'NONE',  ( 1.000000000000000000, 0.0000000000000000000, 0.0000000000000000000 ) ) ;
#237 = CARTESIAN_POINT ( 'NONE',  ( 0.0000000000000000000, 0.0000000000000000000, 1.000000000000000900 ) ) ;
#238 = CARTESIAN_POINT ( 'NONE',  ( 0.0000000000000000000, 0.0000000000000000000, 0.0000000000000000000 ) ) ;
#239 = DIRECTION ( 'NONE',  ( -0.0000000000000000000, -0.0000000000000000000, -1.000000000000000000 ) ) ;
#240 = DIRECTION ( 'NONE',  ( 1.000000000000000000, 0.0000000000000000000, 0.0000000000000000000 ) ) ;
#241 = CARTESIAN_POINT ( 'NONE',  ( 0.0000000000000000000, 0.0000000000000000000, 53.00000000000000000 ) ) ;
#242 = DIRECTION ( 'NONE',  ( 0.0000000000000000000, 0.0000000000000000000, 1.000000000000000000 ) ) ;
#243 = DIRECTION ( 'NONE',  ( 1.000000000000000000, 0.0000000000000000000, 0.0000000000000000000 ) ) ;
#244 = DIRECTION ( 'NONE',  ( -1.000000000000000000, 0.0000000000000000000, 0.0000000000000000000 ) ) ;
#245 = DIRECTION ( 'NONE',  ( -0.0000000000000000000, -0.0000000000000000000, -1.000000000000000000 ) ) ;
#246 = DIRECTION ( 'NONE',  ( 0.0000000000000000000, 0.0000000000000000000, 1.000000000000000000 ) ) ;
#247 = DIRECTION ( 'NONE',  ( 1.000000000000000000, 0.0000000000000000000, 0.0000000000000000000 ) ) ;
#248 = CARTESIAN_POINT ( 'NONE',  ( 0.0000000000000000000, 0.0000000000000000000, 0.0000000000000000000 ) ) ;
#249 = CARTESIAN_POINT ( 'NONE',  ( -3.250000000000002700, 0.0000000000000000000, 0.0000000000000000000 ) ) ;
#250 = DIRECTION ( 'NONE',  ( -0.7071067811865483500, 0.0000000000000000000, -0.7071067811865468000 ) ) ;
#251 = CARTESIAN_POINT ( 'NONE',  ( 2.250000000000000000, 2.755455298081544300E-016, 53.00000000000000000 ) ) ;
#252 = DIRECTION ( 'NONE',  ( -0.0000000000000000000, -0.0000000000000000000, -1.000000000000000000 ) ) ;
#253 = DIRECTION ( 'NONE',  ( 1.000000000000000000, 0.0000000000000000000, 0.0000000000000000000 ) ) ;
#254 = CARTESIAN_POINT ( 'NONE',  ( 0.0000000000000000000, 0.0000000000000000000, 53.00000000000000000 ) ) ;
#255 = DIRECTION ( 'NONE',  ( -0.0000000000000000000, -0.0000000000000000000, -1.000000000000000000 ) ) ;
#256 = DIRECTION ( 'NONE',  ( 1.000000000000000000, 0.0000000000000000000, 0.0000000000000000000 ) ) ;
#257 = CARTESIAN_POINT ( 'NONE',  ( 0.0000000000000000000, 0.0000000000000000000, 1.000000000000000900 ) ) ;
#258 = CARTESIAN_POINT ( 'NONE',  ( 3.250000000000002700, 3.980102097228901700E-016, 0.0000000000000000000 ) ) ;
#259 = DIRECTION ( 'NONE',  ( 0.7071067811865483500, 8.659560562354942700E-017, -0.7071067811865468000 ) ) ;
#260 = CARTESIAN_POINT ( 'NONE',  ( 0.0000000000000000000, 0.0000000000000000000, 0.0000000000000000000 ) ) ;
#261 = DIRECTION ( 'NONE',  ( -0.0000000000000000000, -0.0000000000000000000, -1.000000000000000000 ) ) ;
#262 = DIRECTION ( 'NONE',  ( 0.0000000000000000000, 0.0000000000000000000, 1.000000000000000000 ) ) ;
#263 = DIRECTION ( 'NONE',  ( 1.000000000000000000, 0.0000000000000000000, 0.0000000000000000000 ) ) ;
#264 =( NAMED_UNIT ( * ) PLANE_ANGLE_UNIT ( ) SI_UNIT ( $, .RADIAN. ) );
#265 = DIRECTION ( 'NONE',  ( -0.0000000000000000000, -0.0000000000000000000, -1.000000000000000000 ) ) ;
#266 = DIRECTION ( 'NONE',  ( 1.000000000000000000, 0.0000000000000000000, 0.0000000000000000000 ) ) ;
#267 =( LENGTH_UNIT ( ) NAMED_UNIT ( * ) SI_UNIT ( .MILLI., .METRE. ) );
#268 = CARTESIAN_POINT ( 'NONE',  ( -2.250000000000000000, 2.755455298081544300E-016, 52.00000000000000000 ) ) ;
#269 = DIRECTION ( 'NONE',  ( -0.7071067811865507900, 8.659560562354972300E-017, 0.7071067811865442400 ) ) ;
#270 =( NAMED_UNIT ( * ) SI_UNIT ( $, .STERADIAN. ) SOLID_ANGLE_UNIT ( ) );
#271 = CARTESIAN_POINT ( 'NONE',  ( 0.0000000000000000000, 0.0000000000000000000, 0.0000000000000000000 ) ) ;
#272 = DIRECTION ( 'NONE',  ( 0.0000000000000000000, 0.0000000000000000000, 1.000000000000000000 ) ) ;
#273 = DIRECTION ( 'NONE',  ( 1.000000000000000000, 0.0000000000000000000, 0.0000000000000000000 ) ) ;
#274 = APPLICATION_CONTEXT ( 'configuration controlled 3d designs of mechanical parts and assemblies' ) ;
#275 = APPLICATION_PROTOCOL_DEFINITION ( 'international standard', 'config_control_design', 1994, #274 ) ;
#276 = MECHANICAL_CONTEXT ( 'NONE', #274, 'mechanical' ) ;
#277 = PERSON_AND_ORGANIZATION_ROLE ( 'design_owner' ) ;
#278 = APPLICATION_CONTEXT ( 'configuration controlled 3d designs of mechanical parts and assemblies' ) ;
#279 = APPLICATION_PROTOCOL_DEFINITION ( 'international standard', 'config_control_design', 1994, #278 ) ;
#280 = APPROVAL_STATUS ( 'not_yet_approved' ) ;
#281 = APPROVAL_ROLE ( '' ) ;
#282 = PERSON_AND_ORGANIZATION_ROLE ( 'creator' ) ;
#283 = DATE_TIME_ROLE ( 'creation_date' ) ;
#284 = APPROVAL_STATUS ( 'not_yet_approved' ) ;
#285 = APPROVAL_ROLE ( '' ) ;
#286 = PERSON_AND_ORGANIZATION_ROLE ( 'creator' ) ;
#287 = PERSON_AND_ORGANIZATION_ROLE ( 'design_supplier' ) ;
#288 = SECURITY_CLASSIFICATION_LEVEL ( 'unclassified' ) ;
#289 = PERSON_AND_ORGANIZATION_ROLE ( 'classification_officer' ) ;
#290 = DATE_TIME_ROLE ( 'classification_date' ) ;
#291 = APPROVAL_STATUS ( 'not_yet_approved' ) ;
#292 = APPROVAL_ROLE ( '' ) ;
#293 = AXIS2_PLACEMENT_3D ( 'NONE', #220, #221, #222 ) ;
#294 = AXIS2_PLACEMENT_3D ( 'NONE', #198, #197, #195 ) ;
#295 = EDGE_CURVE ( 'NONE', #165, #166, #81, .T. ) ;
#296 = EDGE_CURVE ( 'NONE', #166, #171, #80, .T. ) ;
#297 = EDGE_CURVE ( 'NONE', #166, #165, #84, .T. ) ;
#298 = EDGE_CURVE ( 'NONE', #165, #162, #83, .T. ) ;
#299 = EDGE_CURVE ( 'NONE', #174, #175, #87, .T. ) ;
#300 = EDGE_CURVE ( 'NONE', #172, #174, #86, .T. ) ;
#301 = EDGE_CURVE ( 'NONE', #172, #173, #89, .T. ) ;
#302 = EDGE_CURVE ( 'NONE', #173, #175, #88, .T. ) ;
#303 = EDGE_CURVE ( 'NONE', #163, #164, #91, .T. ) ;
#304 = EDGE_CURVE ( 'NONE', #162, #167, #93, .T. ) ;
#305 = EDGE_CURVE ( 'NONE', #173, #172, #94, .T. ) ;
#306 = EDGE_CURVE ( 'NONE', #175, #174, #95, .T. ) ;
#307 = AXIS2_PLACEMENT_3D ( 'NONE', #237, #239, #240 ) ;
#308 = AXIS2_PLACEMENT_3D ( 'NONE', #238, #246, #247 ) ;
#309 = AXIS2_PLACEMENT_3D ( 'NONE', #232, #242, #243 ) ;
#310 = AXIS2_PLACEMENT_3D ( 'NONE', #257, #265, #266 ) ;
#311 = AXIS2_PLACEMENT_3D ( 'NONE', #271, #272, #273 ) ;
#312 = AXIS2_PLACEMENT_3D ( 'NONE', #241, #252, #253 ) ;
#313 = AXIS2_PLACEMENT_3D ( 'NONE', #260, #262, #263 ) ;
#314 = AXIS2_PLACEMENT_3D ( 'NONE', #254, #255, #256 ) ;
#315 = AXIS2_PLACEMENT_3D ( 'NONE', #248, #245, #244 ) ;
#316 = CC_DESIGN_PERSON_AND_ORGANIZATION_ASSIGNMENT ( #110, #277, ( #158 ) ) ;
#317 = PRODUCT_DEFINITION ( 'UNKNOWN', '', #322, #155 ) ;
#318 = APPROVAL ( #280, 'UNSPECIFIED' ) ;
#319 = CC_DESIGN_APPROVAL ( #318, ( #317 ) ) ;
#320 = CC_DESIGN_PERSON_AND_ORGANIZATION_ASSIGNMENT ( #118, #282, ( #317 ) ) ;
#321 = CC_DESIGN_DATE_AND_TIME_ASSIGNMENT ( #122, #283, ( #317 ) ) ;
#322 = PRODUCT_DEFINITION_FORMATION_WITH_SPECIFIED_SOURCE ( 'ANY', '', #158, .NOT_KNOWN. ) ;
#323 = APPROVAL ( #284, 'UNSPECIFIED' ) ;
#324 = CC_DESIGN_APPROVAL ( #323, ( #322 ) ) ;
#325 = CC_DESIGN_PERSON_AND_ORGANIZATION_ASSIGNMENT ( #130, #286, ( #322 ) ) ;
#326 = CC_DESIGN_PERSON_AND_ORGANIZATION_ASSIGNMENT ( #131, #287, ( #322 ) ) ;
#327 = SECURITY_CLASSIFICATION ( '', '', #288 ) ;
#328 = CC_DESIGN_PERSON_AND_ORGANIZATION_ASSIGNMENT ( #132, #289, ( #327 ) ) ;
#329 = CC_DESIGN_DATE_AND_TIME_ASSIGNMENT ( #136, #290, ( #327 ) ) ;
#330 = APPROVAL ( #291, 'UNSPECIFIED' ) ;
#331 = CC_DESIGN_APPROVAL ( #330, ( #327 ) ) ;
#332 = CC_DESIGN_SECURITY_CLASSIFICATION ( #327, ( #322 ) ) ;
#333 = PRODUCT_RELATED_PRODUCT_CATEGORY ( 'detail', '', ( #158 ) ) ;
#334 = ADVANCED_BREP_SHAPE_REPRESENTATION ( 'Ãèëüçà àëþìèíèåâàÿ GL-10-4,5 (ÃÀ) EKF', ( #145, #311 ), #107 ) ;
#335 = AXIS2_PLACEMENT_3D ( 'NONE', #201, #200, #196 ) ;
#336 = AXIS2_PLACEMENT_3D ( 'NONE', #188, #191, #192 ) ;
#337 = AXIS2_PLACEMENT_3D ( 'NONE', #179, #178, #177 ) ;
#338 = AXIS2_PLACEMENT_3D ( 'NONE', #228, #230, #231 ) ;
#339 = ADVANCED_FACE ( 'NONE', ( #90 ), #75, .F. ) ;
#340 = AXIS2_PLACEMENT_3D ( 'NONE', #185, #193, #194 ) ;
#341 = EDGE_CURVE ( 'NONE', #162, #164, #96, .T. ) ;
#342 = EDGE_CURVE ( 'NONE', #160, #171, #99, .T. ) ;
#343 = AXIS2_PLACEMENT_3D ( 'NONE', #184, #183, #169 ) ;
#344 = EDGE_CURVE ( 'NONE', #171, #160, #101, .T. ) ;
#345 = EDGE_CURVE ( 'NONE', #167, #163, #92, .T. ) ;
#346 = EDGE_CURVE ( 'NONE', #166, #167, #100, .T. ) ;
#347 = EDGE_CURVE ( 'NONE', #164, #163, #105, .T. ) ;
#348 = EDGE_CURVE ( 'NONE', #167, #162, #106, .T. ) ;
#349 = EDGE_CURVE ( 'NONE', #165, #160, #103, .T. ) ;
ENDSEC;
END-ISO-10303-21;
