ISO-10303-21;
HEADER;
FILE_DESCRIPTION(('Creo Elements/Direct Modeling STEP Export'),'2;1');
FILE_NAME('SCB.6-PT.stp','2014-01-22T13:51:07',(''),(''),
'Creo Elements/Direct Modeling STEP processor for AP214 (Solid Model)',
'Creo Elements/Direct Modeling 18.0B  02-Dec-2011 (C) Parametric Technol
ogy GmbH','');
FILE_SCHEMA(('AUTOMOTIVE_DESIGN { 1 0 10303 214 1 1 1 1 }'));
ENDSEC;
DATA;
#10=CARTESIAN_POINT('',(0.,13.704979470655,0.));
#20=DIRECTION('',(0.,0.,1.));
#30=DIRECTION('',(1.,0.,-0.));
#40=AXIS2_PLACEMENT_3D('',#10,#20,#30);
#50=PLANE('',#40);
#60=CARTESIAN_POINT('',(-33.25,1.5,0.));
#70=DIRECTION('',(0.,0.,1.));
#80=DIRECTION('',(1.,0.,0.));
#90=AXIS2_PLACEMENT_3D('',#60,#70,#80);
#100=CIRCLE('',#90,1.5);
#110=CARTESIAN_POINT('',(-34.75,1.5,0.));
#120=VERTEX_POINT('',#110);
#130=CARTESIAN_POINT('',(-33.25,0.,0.));
#140=VERTEX_POINT('',#130);
#150=EDGE_CURVE('',#120,#140,#100,.T.);
#160=ORIENTED_EDGE('',*,*,#150,.F.);
#170=CARTESIAN_POINT('',(0.,0.,0.));
#180=DIRECTION('',(-1.,0.,0.));
#190=VECTOR('',#180,1.);
#200=LINE('',#170,#190);
#210=CARTESIAN_POINT('',(33.25,0.,0.));
#220=VERTEX_POINT('',#210);
#230=EDGE_CURVE('',#220,#140,#200,.T.);
#240=ORIENTED_EDGE('',*,*,#230,.T.);
#250=CARTESIAN_POINT('',(33.25,1.5,0.));
#260=DIRECTION('',(-0.,-0.,-1.));
#270=DIRECTION('',(-1.,0.,0.));
#280=AXIS2_PLACEMENT_3D('',#250,#260,#270);
#290=CIRCLE('',#280,1.5);
#300=CARTESIAN_POINT('',(34.75,1.5,0.));
#310=VERTEX_POINT('',#300);
#320=EDGE_CURVE('',#310,#220,#290,.T.);
#330=ORIENTED_EDGE('',*,*,#320,.T.);
#340=CARTESIAN_POINT('',(34.75,0.,0.));
#350=DIRECTION('',(0.,-1.,0.));
#360=VECTOR('',#350,1.);
#370=LINE('',#340,#360);
#380=CARTESIAN_POINT('',(34.75,25.9099589413099,0.));
#390=VERTEX_POINT('',#380);
#400=EDGE_CURVE('',#390,#310,#370,.T.);
#410=ORIENTED_EDGE('',*,*,#400,.T.);
#420=CARTESIAN_POINT('',(32.75,25.9099589413099,0.));
#430=DIRECTION('',(0.,0.,1.));
#440=DIRECTION('',(1.,0.,0.));
#450=AXIS2_PLACEMENT_3D('',#420,#430,#440);
#460=CIRCLE('',#450,2.);
#470=CARTESIAN_POINT('',(34.6293852415718,26.5939992279613,0.));
#480=VERTEX_POINT('',#470);
#490=EDGE_CURVE('',#390,#480,#460,.T.);
#500=ORIENTED_EDGE('',*,*,#490,.F.);
#510=CARTESIAN_POINT('',(44.3088093706481,0.,0.));
#520=DIRECTION('',(-0.342020143325669,0.939692620785908,0.));
#530=VECTOR('',#520,1.);
#540=LINE('',#510,#530);
#550=CARTESIAN_POINT('',(29.75,40.,0.));
#560=VERTEX_POINT('',#550);
#570=EDGE_CURVE('',#480,#560,#540,.T.);
#580=ORIENTED_EDGE('',*,*,#570,.F.);
#590=CARTESIAN_POINT('',(31.99,0.,0.));
#600=DIRECTION('',(0.0559123979861756,-0.998435678324566,0.));
#610=VECTOR('',#600,1.);
#620=LINE('',#590,#610);
#630=CARTESIAN_POINT('',(29.1028689057128,51.5559123979864,0.));
#640=VERTEX_POINT('',#630);
#650=EDGE_CURVE('',#640,#560,#620,.T.);
#660=ORIENTED_EDGE('',*,*,#650,.T.);
#670=CARTESIAN_POINT('',(28.1044332273882,51.5,0.));
#680=DIRECTION('',(0.,0.,1.));
#690=DIRECTION('',(1.,0.,0.));
#700=AXIS2_PLACEMENT_3D('',#670,#680,#690);
#710=CIRCLE('',#700,1.);
#720=CARTESIAN_POINT('',(28.1044332273882,52.5,0.));
#730=VERTEX_POINT('',#720);
#740=EDGE_CURVE('',#640,#730,#710,.T.);
#750=ORIENTED_EDGE('',*,*,#740,.F.);
#760=CARTESIAN_POINT('',(0.,52.5,0.));
#770=DIRECTION('',(1.,0.,0.));
#780=VECTOR('',#770,1.);
#790=LINE('',#760,#780);
#800=CARTESIAN_POINT('',(-28.1044332273882,52.5,0.));
#810=VERTEX_POINT('',#800);
#820=EDGE_CURVE('',#810,#730,#790,.T.);
#830=ORIENTED_EDGE('',*,*,#820,.T.);
#840=CARTESIAN_POINT('',(-28.1044332273882,51.5,0.));
#850=DIRECTION('',(-0.,-0.,-1.));
#860=DIRECTION('',(-1.,0.,0.));
#870=AXIS2_PLACEMENT_3D('',#840,#850,#860);
#880=CIRCLE('',#870,1.);
#890=CARTESIAN_POINT('',(-29.1028689057128,51.5559123979862,0.));
#900=VERTEX_POINT('',#890);
#910=EDGE_CURVE('',#900,#810,#880,.T.);
#920=ORIENTED_EDGE('',*,*,#910,.T.);
#930=CARTESIAN_POINT('',(-31.99,0.,0.));
#940=DIRECTION('',(-0.0559123979861756,-0.998435678324566,0.));
#950=VECTOR('',#940,1.);
#960=LINE('',#930,#950);
#970=CARTESIAN_POINT('',(-29.75,40.,0.));
#980=VERTEX_POINT('',#970);
#990=EDGE_CURVE('',#900,#980,#960,.T.);
#1000=ORIENTED_EDGE('',*,*,#990,.F.);
#1010=CARTESIAN_POINT('',(-44.3088093706481,0.,0.));
#1020=DIRECTION('',(0.342020143325669,0.939692620785908,0.));
#1030=VECTOR('',#1020,1.);
#1040=LINE('',#1010,#1030);
#1050=CARTESIAN_POINT('',(-34.6293852415718,26.5939992279613,0.));
#1060=VERTEX_POINT('',#1050);
#1070=EDGE_CURVE('',#1060,#980,#1040,.T.);
#1080=ORIENTED_EDGE('',*,*,#1070,.T.);
#1090=CARTESIAN_POINT('',(-32.75,25.9099589413099,0.));
#1100=DIRECTION('',(-0.,-0.,-1.));
#1110=DIRECTION('',(-1.,0.,0.));
#1120=AXIS2_PLACEMENT_3D('',#1090,#1100,#1110);
#1130=CIRCLE('',#1120,2.);
#1140=CARTESIAN_POINT('',(-34.75,25.9099589413099,0.));
#1150=VERTEX_POINT('',#1140);
#1160=EDGE_CURVE('',#1150,#1060,#1130,.T.);
#1170=ORIENTED_EDGE('',*,*,#1160,.T.);
#1180=CARTESIAN_POINT('',(-34.75,0.,0.));
#1190=DIRECTION('',(0.,-1.,0.));
#1200=VECTOR('',#1190,1.);
#1210=LINE('',#1180,#1200);
#1220=EDGE_CURVE('',#1150,#120,#1210,.T.);
#1230=ORIENTED_EDGE('',*,*,#1220,.F.);
#1240=EDGE_LOOP('',(#1230,#1170,#1080,#1000,#920,#830,#750,#660,#580,
#500,#410,#330,#240,#160));
#1250=FACE_OUTER_BOUND('',#1240,.T.);
#1260=ADVANCED_FACE('',(#1250),#50,.F.);
#1270=CARTESIAN_POINT('',(0.,13.704979470655,1.5));
#1280=DIRECTION('',(0.,0.,1.));
#1290=DIRECTION('',(1.,0.,-0.));
#1300=AXIS2_PLACEMENT_3D('',#1270,#1280,#1290);
#1310=PLANE('',#1300);
#1320=CARTESIAN_POINT('',(-34.75,0.,1.5));
#1330=DIRECTION('',(0.,-1.,0.));
#1340=VECTOR('',#1330,1.);
#1350=LINE('',#1320,#1340);
#1360=CARTESIAN_POINT('',(-34.75,25.9099589413099,1.5));
#1370=VERTEX_POINT('',#1360);
#1380=CARTESIAN_POINT('',(-34.75,1.5,1.5));
#1390=VERTEX_POINT('',#1380);
#1400=EDGE_CURVE('',#1370,#1390,#1350,.T.);
#1410=ORIENTED_EDGE('',*,*,#1400,.T.);
#1420=CARTESIAN_POINT('',(-32.75,25.9099589413099,1.5));
#1430=DIRECTION('',(-0.,-0.,-1.));
#1440=DIRECTION('',(-1.,0.,0.));
#1450=AXIS2_PLACEMENT_3D('',#1420,#1430,#1440);
#1460=CIRCLE('',#1450,2.);
#1470=CARTESIAN_POINT('',(-34.6293852415718,26.5939992279613,1.5));
#1480=VERTEX_POINT('',#1470);
#1490=EDGE_CURVE('',#1370,#1480,#1460,.T.);
#1500=ORIENTED_EDGE('',*,*,#1490,.F.);
#1510=CARTESIAN_POINT('',(-44.3088093706481,0.,1.5));
#1520=DIRECTION('',(0.342020143325669,0.939692620785908,0.));
#1530=VECTOR('',#1520,1.);
#1540=LINE('',#1510,#1530);
#1550=CARTESIAN_POINT('',(-29.75,40.,1.5));
#1560=VERTEX_POINT('',#1550);
#1570=EDGE_CURVE('',#1480,#1560,#1540,.T.);
#1580=ORIENTED_EDGE('',*,*,#1570,.F.);
#1590=CARTESIAN_POINT('',(-31.99,0.,1.5));
#1600=DIRECTION('',(-0.0559123979861756,-0.998435678324566,0.));
#1610=VECTOR('',#1600,1.);
#1620=LINE('',#1590,#1610);
#1630=CARTESIAN_POINT('',(-29.1028689057128,51.5559123979862,1.5));
#1640=VERTEX_POINT('',#1630);
#1650=EDGE_CURVE('',#1640,#1560,#1620,.T.);
#1660=ORIENTED_EDGE('',*,*,#1650,.T.);
#1670=CARTESIAN_POINT('',(-28.1044332273882,51.5,1.5));
#1680=DIRECTION('',(-0.,-0.,-1.));
#1690=DIRECTION('',(-1.,0.,0.));
#1700=AXIS2_PLACEMENT_3D('',#1670,#1680,#1690);
#1710=CIRCLE('',#1700,1.);
#1720=CARTESIAN_POINT('',(-28.1044332273882,52.5,1.5));
#1730=VERTEX_POINT('',#1720);
#1740=EDGE_CURVE('',#1640,#1730,#1710,.T.);
#1750=ORIENTED_EDGE('',*,*,#1740,.F.);
#1760=CARTESIAN_POINT('',(0.,52.5,1.5));
#1770=DIRECTION('',(1.,0.,0.));
#1780=VECTOR('',#1770,1.);
#1790=LINE('',#1760,#1780);
#1800=CARTESIAN_POINT('',(28.1044332273882,52.5,1.5));
#1810=VERTEX_POINT('',#1800);
#1820=EDGE_CURVE('',#1730,#1810,#1790,.T.);
#1830=ORIENTED_EDGE('',*,*,#1820,.F.);
#1840=CARTESIAN_POINT('',(28.1044332273882,51.5,1.5));
#1850=DIRECTION('',(0.,0.,1.));
#1860=DIRECTION('',(1.,0.,0.));
#1870=AXIS2_PLACEMENT_3D('',#1840,#1850,#1860);
#1880=CIRCLE('',#1870,1.);
#1890=CARTESIAN_POINT('',(29.1028689057128,51.5559123979864,1.5));
#1900=VERTEX_POINT('',#1890);
#1910=EDGE_CURVE('',#1900,#1810,#1880,.T.);
#1920=ORIENTED_EDGE('',*,*,#1910,.T.);
#1930=CARTESIAN_POINT('',(31.99,0.,1.5));
#1940=DIRECTION('',(0.0559123979861756,-0.998435678324566,0.));
#1950=VECTOR('',#1940,1.);
#1960=LINE('',#1930,#1950);
#1970=CARTESIAN_POINT('',(29.75,40.,1.5));
#1980=VERTEX_POINT('',#1970);
#1990=EDGE_CURVE('',#1900,#1980,#1960,.T.);
#2000=ORIENTED_EDGE('',*,*,#1990,.F.);
#2010=CARTESIAN_POINT('',(44.3088093706481,0.,1.5));
#2020=DIRECTION('',(-0.342020143325669,0.939692620785908,0.));
#2030=VECTOR('',#2020,1.);
#2040=LINE('',#2010,#2030);
#2050=CARTESIAN_POINT('',(34.6293852415718,26.5939992279613,1.5));
#2060=VERTEX_POINT('',#2050);
#2070=EDGE_CURVE('',#2060,#1980,#2040,.T.);
#2080=ORIENTED_EDGE('',*,*,#2070,.T.);
#2090=CARTESIAN_POINT('',(32.75,25.9099589413099,1.5));
#2100=DIRECTION('',(0.,0.,1.));
#2110=DIRECTION('',(1.,0.,0.));
#2120=AXIS2_PLACEMENT_3D('',#2090,#2100,#2110);
#2130=CIRCLE('',#2120,2.);
#2140=CARTESIAN_POINT('',(34.75,25.9099589413099,1.5));
#2150=VERTEX_POINT('',#2140);
#2160=EDGE_CURVE('',#2150,#2060,#2130,.T.);
#2170=ORIENTED_EDGE('',*,*,#2160,.T.);
#2180=CARTESIAN_POINT('',(34.75,0.,1.5));
#2190=DIRECTION('',(0.,-1.,0.));
#2200=VECTOR('',#2190,1.);
#2210=LINE('',#2180,#2200);
#2220=CARTESIAN_POINT('',(34.75,1.5,1.5));
#2230=VERTEX_POINT('',#2220);
#2240=EDGE_CURVE('',#2150,#2230,#2210,.T.);
#2250=ORIENTED_EDGE('',*,*,#2240,.F.);
#2260=CARTESIAN_POINT('',(33.25,1.5,1.5));
#2270=DIRECTION('',(-0.,-0.,-1.));
#2280=DIRECTION('',(-1.,0.,0.));
#2290=AXIS2_PLACEMENT_3D('',#2260,#2270,#2280);
#2300=CIRCLE('',#2290,1.5);
#2310=CARTESIAN_POINT('',(33.25,0.,1.5));
#2320=VERTEX_POINT('',#2310);
#2330=EDGE_CURVE('',#2230,#2320,#2300,.T.);
#2340=ORIENTED_EDGE('',*,*,#2330,.F.);
#2350=CARTESIAN_POINT('',(0.,0.,1.5));
#2360=DIRECTION('',(-1.,0.,0.));
#2370=VECTOR('',#2360,1.);
#2380=LINE('',#2350,#2370);
#2390=CARTESIAN_POINT('',(-33.25,0.,1.5));
#2400=VERTEX_POINT('',#2390);
#2410=EDGE_CURVE('',#2320,#2400,#2380,.T.);
#2420=ORIENTED_EDGE('',*,*,#2410,.F.);
#2430=CARTESIAN_POINT('',(-33.25,1.5,1.5));
#2440=DIRECTION('',(0.,0.,1.));
#2450=DIRECTION('',(1.,0.,0.));
#2460=AXIS2_PLACEMENT_3D('',#2430,#2440,#2450);
#2470=CIRCLE('',#2460,1.5);
#2480=EDGE_CURVE('',#1390,#2400,#2470,.T.);
#2490=ORIENTED_EDGE('',*,*,#2480,.T.);
#2500=EDGE_LOOP('',(#2490,#2420,#2340,#2250,#2170,#2080,#2000,#1920,
#1830,#1750,#1660,#1580,#1500,#1410));
#2510=FACE_OUTER_BOUND('',#2500,.T.);
#2520=ADVANCED_FACE('',(#2510),#1310,.T.);
#2530=CARTESIAN_POINT('',(-33.25,1.5,0.));
#2540=DIRECTION('',(0.,0.,1.));
#2550=DIRECTION('',(1.,0.,0.));
#2560=AXIS2_PLACEMENT_3D('',#2530,#2540,#2550);
#2570=CYLINDRICAL_SURFACE('',#2560,1.5);
#2580=CARTESIAN_POINT('',(-34.75,1.5,0.));
#2590=DIRECTION('',(0.,0.,1.));
#2600=VECTOR('',#2590,1.);
#2610=LINE('',#2580,#2600);
#2620=EDGE_CURVE('',#120,#1390,#2610,.T.);
#2630=ORIENTED_EDGE('',*,*,#2620,.F.);
#2640=ORIENTED_EDGE('',*,*,#2480,.F.);
#2650=CARTESIAN_POINT('',(-33.25,0.,0.));
#2660=DIRECTION('',(0.,0.,1.));
#2670=VECTOR('',#2660,1.);
#2680=LINE('',#2650,#2670);
#2690=EDGE_CURVE('',#140,#2400,#2680,.T.);
#2700=ORIENTED_EDGE('',*,*,#2690,.T.);
#2710=ORIENTED_EDGE('',*,*,#150,.T.);
#2720=EDGE_LOOP('',(#2710,#2700,#2640,#2630));
#2730=FACE_OUTER_BOUND('',#2720,.T.);
#2740=ADVANCED_FACE('',(#2730),#2570,.T.);
#2750=CARTESIAN_POINT('',(33.25,0.,0.));
#2760=DIRECTION('',(0.,-1.,0.));
#2770=DIRECTION('',(-1.,-0.,0.));
#2780=AXIS2_PLACEMENT_3D('',#2750,#2760,#2770);
#2790=PLANE('',#2780);
#2800=ORIENTED_EDGE('',*,*,#2690,.F.);
#2810=ORIENTED_EDGE('',*,*,#2410,.T.);
#2820=CARTESIAN_POINT('',(33.25,0.,0.));
#2830=DIRECTION('',(0.,0.,1.));
#2840=VECTOR('',#2830,1.);
#2850=LINE('',#2820,#2840);
#2860=EDGE_CURVE('',#220,#2320,#2850,.T.);
#2870=ORIENTED_EDGE('',*,*,#2860,.T.);
#2880=ORIENTED_EDGE('',*,*,#230,.F.);
#2890=EDGE_LOOP('',(#2880,#2870,#2810,#2800));
#2900=FACE_OUTER_BOUND('',#2890,.T.);
#2910=ADVANCED_FACE('',(#2900),#2790,.T.);
#2920=CARTESIAN_POINT('',(33.25,1.5,0.));
#2930=DIRECTION('',(-0.,-0.,-1.));
#2940=DIRECTION('',(-1.,0.,0.));
#2950=AXIS2_PLACEMENT_3D('',#2920,#2930,#2940);
#2960=CYLINDRICAL_SURFACE('',#2950,1.5);
#2970=ORIENTED_EDGE('',*,*,#2860,.F.);
#2980=ORIENTED_EDGE('',*,*,#2330,.T.);
#2990=CARTESIAN_POINT('',(34.75,1.5,0.));
#3000=DIRECTION('',(0.,0.,1.));
#3010=VECTOR('',#3000,1.);
#3020=LINE('',#2990,#3010);
#3030=EDGE_CURVE('',#310,#2230,#3020,.T.);
#3040=ORIENTED_EDGE('',*,*,#3030,.T.);
#3050=ORIENTED_EDGE('',*,*,#320,.F.);
#3060=EDGE_LOOP('',(#3050,#3040,#2980,#2970));
#3070=FACE_OUTER_BOUND('',#3060,.T.);
#3080=ADVANCED_FACE('',(#3070),#2960,.T.);
#3090=CARTESIAN_POINT('',(34.75,25.9099589413099,0.));
#3100=DIRECTION('',(1.,0.,0.));
#3110=DIRECTION('',(0.,-1.,0.));
#3120=AXIS2_PLACEMENT_3D('',#3090,#3100,#3110);
#3130=PLANE('',#3120);
#3140=ORIENTED_EDGE('',*,*,#3030,.F.);
#3150=ORIENTED_EDGE('',*,*,#2240,.T.);
#3160=CARTESIAN_POINT('',(34.75,25.9099589413099,0.));
#3170=DIRECTION('',(0.,0.,1.));
#3180=VECTOR('',#3170,1.);
#3190=LINE('',#3160,#3180);
#3200=EDGE_CURVE('',#390,#2150,#3190,.T.);
#3210=ORIENTED_EDGE('',*,*,#3200,.T.);
#3220=ORIENTED_EDGE('',*,*,#400,.F.);
#3230=EDGE_LOOP('',(#3220,#3210,#3150,#3140));
#3240=FACE_OUTER_BOUND('',#3230,.T.);
#3250=ADVANCED_FACE('',(#3240),#3130,.T.);
#3260=CARTESIAN_POINT('',(32.75,25.9099589413099,0.));
#3270=DIRECTION('',(0.,0.,1.));
#3280=DIRECTION('',(1.,0.,0.));
#3290=AXIS2_PLACEMENT_3D('',#3260,#3270,#3280);
#3300=CYLINDRICAL_SURFACE('',#3290,2.);
#3310=ORIENTED_EDGE('',*,*,#3200,.F.);
#3320=ORIENTED_EDGE('',*,*,#2160,.F.);
#3330=CARTESIAN_POINT('',(34.6293852415718,26.5939992279613,0.));
#3340=DIRECTION('',(0.,0.,1.));
#3350=VECTOR('',#3340,1.);
#3360=LINE('',#3330,#3350);
#3370=EDGE_CURVE('',#480,#2060,#3360,.T.);
#3380=ORIENTED_EDGE('',*,*,#3370,.T.);
#3390=ORIENTED_EDGE('',*,*,#490,.T.);
#3400=EDGE_LOOP('',(#3390,#3380,#3320,#3310));
#3410=FACE_OUTER_BOUND('',#3400,.T.);
#3420=ADVANCED_FACE('',(#3410),#3300,.T.);
#3430=CARTESIAN_POINT('',(29.75,40.,0.));
#3440=DIRECTION('',(0.939692620785908,0.342020143325669,0.));
#3450=DIRECTION('',(0.342020143325669,-0.939692620785908,0.));
#3460=AXIS2_PLACEMENT_3D('',#3430,#3440,#3450);
#3470=PLANE('',#3460);
#3480=ORIENTED_EDGE('',*,*,#3370,.F.);
#3490=ORIENTED_EDGE('',*,*,#2070,.F.);
#3500=CARTESIAN_POINT('',(29.75,40.,0.));
#3510=DIRECTION('',(0.,0.,1.));
#3520=VECTOR('',#3510,1.);
#3530=LINE('',#3500,#3520);
#3540=EDGE_CURVE('',#560,#1980,#3530,.T.);
#3550=ORIENTED_EDGE('',*,*,#3540,.T.);
#3560=ORIENTED_EDGE('',*,*,#570,.T.);
#3570=EDGE_LOOP('',(#3560,#3550,#3490,#3480));
#3580=FACE_OUTER_BOUND('',#3570,.T.);
#3590=ADVANCED_FACE('',(#3580),#3470,.T.);
#3600=CARTESIAN_POINT('',(29.1028689057128,51.5559123979864,0.));
#3610=DIRECTION('',(0.998435678324566,0.0559123979861756,0.));
#3620=DIRECTION('',(0.0559123979861756,-0.998435678324566,0.));
#3630=AXIS2_PLACEMENT_3D('',#3600,#3610,#3620);
#3640=PLANE('',#3630);
#3650=ORIENTED_EDGE('',*,*,#3540,.F.);
#3660=ORIENTED_EDGE('',*,*,#1990,.T.);
#3670=CARTESIAN_POINT('',(29.1028689057128,51.5559123979864,0.));
#3680=DIRECTION('',(0.,0.,1.));
#3690=VECTOR('',#3680,1.);
#3700=LINE('',#3670,#3690);
#3710=EDGE_CURVE('',#640,#1900,#3700,.T.);
#3720=ORIENTED_EDGE('',*,*,#3710,.T.);
#3730=ORIENTED_EDGE('',*,*,#650,.F.);
#3740=EDGE_LOOP('',(#3730,#3720,#3660,#3650));
#3750=FACE_OUTER_BOUND('',#3740,.T.);
#3760=ADVANCED_FACE('',(#3750),#3640,.T.);
#3770=CARTESIAN_POINT('',(28.1044332273882,51.5,0.));
#3780=DIRECTION('',(0.,0.,1.));
#3790=DIRECTION('',(1.,0.,0.));
#3800=AXIS2_PLACEMENT_3D('',#3770,#3780,#3790);
#3810=CYLINDRICAL_SURFACE('',#3800,1.);
#3820=ORIENTED_EDGE('',*,*,#3710,.F.);
#3830=ORIENTED_EDGE('',*,*,#1910,.F.);
#3840=CARTESIAN_POINT('',(28.1044332273882,52.5,0.));
#3850=DIRECTION('',(0.,0.,1.));
#3860=VECTOR('',#3850,1.);
#3870=LINE('',#3840,#3860);
#3880=EDGE_CURVE('',#730,#1810,#3870,.T.);
#3890=ORIENTED_EDGE('',*,*,#3880,.T.);
#3900=ORIENTED_EDGE('',*,*,#740,.T.);
#3910=EDGE_LOOP('',(#3900,#3890,#3830,#3820));
#3920=FACE_OUTER_BOUND('',#3910,.T.);
#3930=ADVANCED_FACE('',(#3920),#3810,.T.);
#3940=CARTESIAN_POINT('',(-28.1044332273882,52.5,0.));
#3950=DIRECTION('',(0.,1.,0.));
#3960=DIRECTION('',(1.,-0.,0.));
#3970=AXIS2_PLACEMENT_3D('',#3940,#3950,#3960);
#3980=PLANE('',#3970);
#3990=ORIENTED_EDGE('',*,*,#3880,.F.);
#4000=ORIENTED_EDGE('',*,*,#1820,.T.);
#4010=CARTESIAN_POINT('',(-28.1044332273882,52.5,0.));
#4020=DIRECTION('',(0.,0.,1.));
#4030=VECTOR('',#4020,1.);
#4040=LINE('',#4010,#4030);
#4050=EDGE_CURVE('',#810,#1730,#4040,.T.);
#4060=ORIENTED_EDGE('',*,*,#4050,.T.);
#4070=ORIENTED_EDGE('',*,*,#820,.F.);
#4080=EDGE_LOOP('',(#4070,#4060,#4000,#3990));
#4090=FACE_OUTER_BOUND('',#4080,.T.);
#4100=ADVANCED_FACE('',(#4090),#3980,.T.);
#4110=CARTESIAN_POINT('',(-28.1044332273882,51.5,0.));
#4120=DIRECTION('',(-0.,-0.,-1.));
#4130=DIRECTION('',(-1.,0.,0.));
#4140=AXIS2_PLACEMENT_3D('',#4110,#4120,#4130);
#4150=CYLINDRICAL_SURFACE('',#4140,1.);
#4160=ORIENTED_EDGE('',*,*,#4050,.F.);
#4170=ORIENTED_EDGE('',*,*,#1740,.T.);
#4180=CARTESIAN_POINT('',(-29.1028689057128,51.5559123979862,0.));
#4190=DIRECTION('',(0.,0.,1.));
#4200=VECTOR('',#4190,1.);
#4210=LINE('',#4180,#4200);
#4220=EDGE_CURVE('',#900,#1640,#4210,.T.);
#4230=ORIENTED_EDGE('',*,*,#4220,.T.);
#4240=ORIENTED_EDGE('',*,*,#910,.F.);
#4250=EDGE_LOOP('',(#4240,#4230,#4170,#4160));
#4260=FACE_OUTER_BOUND('',#4250,.T.);
#4270=ADVANCED_FACE('',(#4260),#4150,.T.);
#4280=CARTESIAN_POINT('',(-29.75,40.,0.));
#4290=DIRECTION('',(-0.998435678324566,0.0559123979861756,0.));
#4300=DIRECTION('',(0.0559123979861756,0.998435678324566,0.));
#4310=AXIS2_PLACEMENT_3D('',#4280,#4290,#4300);
#4320=PLANE('',#4310);
#4330=ORIENTED_EDGE('',*,*,#4220,.F.);
#4340=ORIENTED_EDGE('',*,*,#1650,.F.);
#4350=CARTESIAN_POINT('',(-29.75,40.,0.));
#4360=DIRECTION('',(0.,0.,1.));
#4370=VECTOR('',#4360,1.);
#4380=LINE('',#4350,#4370);
#4390=EDGE_CURVE('',#980,#1560,#4380,.T.);
#4400=ORIENTED_EDGE('',*,*,#4390,.T.);
#4410=ORIENTED_EDGE('',*,*,#990,.T.);
#4420=EDGE_LOOP('',(#4410,#4400,#4340,#4330));
#4430=FACE_OUTER_BOUND('',#4420,.T.);
#4440=ADVANCED_FACE('',(#4430),#4320,.T.);
#4450=CARTESIAN_POINT('',(-34.6293852415718,26.5939992279613,0.));
#4460=DIRECTION('',(-0.939692620785908,0.342020143325669,0.));
#4470=DIRECTION('',(0.342020143325669,0.939692620785908,0.));
#4480=AXIS2_PLACEMENT_3D('',#4450,#4460,#4470);
#4490=PLANE('',#4480);
#4500=ORIENTED_EDGE('',*,*,#4390,.F.);
#4510=ORIENTED_EDGE('',*,*,#1570,.T.);
#4520=CARTESIAN_POINT('',(-34.6293852415718,26.5939992279613,0.));
#4530=DIRECTION('',(0.,0.,1.));
#4540=VECTOR('',#4530,1.);
#4550=LINE('',#4520,#4540);
#4560=EDGE_CURVE('',#1060,#1480,#4550,.T.);
#4570=ORIENTED_EDGE('',*,*,#4560,.T.);
#4580=ORIENTED_EDGE('',*,*,#1070,.F.);
#4590=EDGE_LOOP('',(#4580,#4570,#4510,#4500));
#4600=FACE_OUTER_BOUND('',#4590,.T.);
#4610=ADVANCED_FACE('',(#4600),#4490,.T.);
#4620=CARTESIAN_POINT('',(-32.75,25.9099589413099,0.));
#4630=DIRECTION('',(-0.,-0.,-1.));
#4640=DIRECTION('',(-1.,0.,0.));
#4650=AXIS2_PLACEMENT_3D('',#4620,#4630,#4640);
#4660=CYLINDRICAL_SURFACE('',#4650,2.);
#4670=ORIENTED_EDGE('',*,*,#4560,.F.);
#4680=ORIENTED_EDGE('',*,*,#1490,.T.);
#4690=CARTESIAN_POINT('',(-34.75,25.9099589413099,0.));
#4700=DIRECTION('',(0.,0.,1.));
#4710=VECTOR('',#4700,1.);
#4720=LINE('',#4690,#4710);
#4730=EDGE_CURVE('',#1150,#1370,#4720,.T.);
#4740=ORIENTED_EDGE('',*,*,#4730,.T.);
#4750=ORIENTED_EDGE('',*,*,#1160,.F.);
#4760=EDGE_LOOP('',(#4750,#4740,#4680,#4670));
#4770=FACE_OUTER_BOUND('',#4760,.T.);
#4780=ADVANCED_FACE('',(#4770),#4660,.T.);
#4790=CARTESIAN_POINT('',(-34.75,1.5,0.));
#4800=DIRECTION('',(-1.,0.,0.));
#4810=DIRECTION('',(0.,1.,0.));
#4820=AXIS2_PLACEMENT_3D('',#4790,#4800,#4810);
#4830=PLANE('',#4820);
#4840=ORIENTED_EDGE('',*,*,#4730,.F.);
#4850=ORIENTED_EDGE('',*,*,#1400,.F.);
#4860=ORIENTED_EDGE('',*,*,#2620,.T.);
#4870=ORIENTED_EDGE('',*,*,#1220,.T.);
#4880=EDGE_LOOP('',(#4870,#4860,#4850,#4840));
#4890=FACE_OUTER_BOUND('',#4880,.T.);
#4900=ADVANCED_FACE('',(#4890),#4830,.T.);
#4910=CLOSED_SHELL('',(#2740,#2910,#3080,#3250,#3420,#3590,#3760,#3930,
#4100,#4270,#4440,#4610,#4780,#4900,#2520,#1260));
#4920=MANIFOLD_SOLID_BREP('',#4910);
#4930=CARTESIAN_POINT('',(0.,0.,0.));
#4940=DIRECTION('',(0.,0.,1.));
#4950=DIRECTION('',(1.,0.,0.));
#4960=AXIS2_PLACEMENT_3D('',#4930,#4940,#4950);
#4970=APPLICATION_CONTEXT(' ');
#4980=APPLICATION_PROTOCOL_DEFINITION(' ','automotive_design',1998,#4970
);
#4990=PRODUCT_CONTEXT('',#4970,'mechanical');
#5000=PRODUCT_DEFINITION_CONTEXT('part definition',#4970,'design');
#5010=PRODUCT('SCB6-PT','SCB6-PT','',(#4990));
#5020=PRODUCT_RELATED_PRODUCT_CATEGORY('part',' ',(#5010));
#5030=PRODUCT_DEFINITION_FORMATION_WITH_SPECIFIED_SOURCE('','',#5010,
.BOUGHT.);
#5040=PRODUCT_DEFINITION('',' ',#5030,#5000);
#5050=PRODUCT_DEFINITION_SHAPE('','',#5040);
#5060=DIMENSIONAL_EXPONENTS(1.,0.,0.,0.,0.,0.,0.);
#5070=DIMENSIONAL_EXPONENTS(0.,0.,0.,0.,0.,0.,0.);
#5080=DIMENSIONAL_EXPONENTS(0.,0.,0.,0.,0.,0.,0.);
#5090=(LENGTH_UNIT() NAMED_UNIT(*) SI_UNIT(.MILLI.,.METRE.));
#5100=(NAMED_UNIT(*) PLANE_ANGLE_UNIT() SI_UNIT($,.RADIAN.));
#5110=(NAMED_UNIT(*) SI_UNIT($,.STERADIAN.) SOLID_ANGLE_UNIT());
#5120=(GEOMETRIC_REPRESENTATION_CONTEXT(3) 
GLOBAL_UNCERTAINTY_ASSIGNED_CONTEXT((#5130)) 
GLOBAL_UNIT_ASSIGNED_CONTEXT((#5090,#5100,#5110)) REPRESENTATION_CONTEXT
('',''));
#5130=UNCERTAINTY_MEASURE_WITH_UNIT(LENGTH_MEASURE(1.E-6),#5090,
'distance_accuracy_value','maximum gap value');
#5140=ADVANCED_BREP_SHAPE_REPRESENTATION('',(#4960,#4920),#5120);
#5150=SHAPE_DEFINITION_REPRESENTATION(#5050,#5140);
#5160=COLOUR_RGB('',0.600000023841858,0.600000023841858,
0.600000023841858);
#5170=FILL_AREA_STYLE_COLOUR('',#5160);
#5180=FILL_AREA_STYLE('',(#5170));
#5190=SURFACE_STYLE_FILL_AREA(#5180);
#5200=SURFACE_SIDE_STYLE('',(#5190));
#5210=SURFACE_STYLE_USAGE(.BOTH.,#5200);
#5220=PRESENTATION_STYLE_ASSIGNMENT((#5210));
#5230=STYLED_ITEM('',(#5220),#4920);
#5240=DRAUGHTING_MODEL('',(#5230),#5120);
ENDSEC;
END-ISO-10303-21;
