ISO-10303-21;
HEADER;
FILE_DESCRIPTION (( 'STEP AP203' ),
    '1' );
FILE_NAME ('CTR10-025-K02-100-1 Òðóáà ãëàäêàÿ æåñòêàÿ ÏÍÄ d25 ÈÝÊ ÷åðíàÿ (100ì).STEP',
    '2016-05-17T06:41:10',
    ( '' ),
    ( '' ),
    'SwSTEP 2.0',
    'SolidWorks 2014',
    '' );
FILE_SCHEMA (( 'CONFIG_CONTROL_DESIGN' ));
ENDSEC;

DATA;
#1 = EDGE_LOOP ( 'NONE', ( #156 ) ) ;
#2 = FACE_OUTER_BOUND ( 'NONE', #148, .T. ) ;
#3 = APPROVAL_ROLE ( '' ) ;
#4 = PRODUCT ( 'CTR10-025-K02-100-1 Òðóáà ãëàäêàÿ æåñòêàÿ ÏÍÄ d25 ÈÝÊ ÷åðíàÿ (100ì)', 'CTR10-025-K02-100-1 Òðóáà ãëàäêàÿ æåñòêàÿ ÏÍÄ d25 ÈÝÊ ÷åðíàÿ (100ì)', '', ( #154 ) ) ;
#5 = SECURITY_CLASSIFICATION_LEVEL ( 'unclassified' ) ;
#6 = AXIS2_PLACEMENT_3D ( 'NONE', #140, #67, #127 ) ;
#7 = DIRECTION ( 'NONE',  ( 1.000000000000000000, 0.0000000000000000000, 0.0000000000000000000 ) ) ;
#8 = ORIENTED_EDGE ( 'NONE', *, *, #58, .T. ) ;
#9 = APPROVAL_STATUS ( 'not_yet_approved' ) ;
#10 = COORDINATED_UNIVERSAL_TIME_OFFSET ( 3, 0, .AHEAD. ) ;
#11 = DATE_AND_TIME ( #32, #37 ) ;
#12 = PERSON_AND_ORGANIZATION_ROLE ( 'design_supplier' ) ;
#13 = CARTESIAN_POINT ( 'NONE',  ( 0.0000000000000000000, 0.0000000000000000000, 2000.000000000000000 ) ) ;
#14 = CARTESIAN_POINT ( 'NONE',  ( 0.0000000000000000000, 0.0000000000000000000, 0.0000000000000000000 ) ) ;
#15 = APPROVAL_ROLE ( '' ) ;
#16 = CARTESIAN_POINT ( 'NONE',  ( 0.0000000000000000000, 0.0000000000000000000, 0.0000000000000000000 ) ) ;
#17 = CARTESIAN_POINT ( 'NONE',  ( 0.0000000000000000000, 0.0000000000000000000, 2000.000000000000000 ) ) ;
#18 = CC_DESIGN_PERSON_AND_ORGANIZATION_ASSIGNMENT ( #97, #12, ( #38 ) ) ;
#19 = APPROVAL_PERSON_ORGANIZATION ( #94, #72, #50 ) ;
#20 = DIRECTION ( 'NONE',  ( 1.000000000000000000, 0.0000000000000000000, 0.0000000000000000000 ) ) ;
#21 = CARTESIAN_POINT ( 'NONE',  ( 10.50000000000000000, 0.0000000000000000000, 0.0000000000000000000 ) ) ;
#22 =( GEOMETRIC_REPRESENTATION_CONTEXT ( 3 ) GLOBAL_UNCERTAINTY_ASSIGNED_CONTEXT ( ( #91 ) ) GLOBAL_UNIT_ASSIGNED_CONTEXT ( ( #163, #93, #113 ) ) REPRESENTATION_CONTEXT ( 'NONE', 'WORKASPACE' ) );
#23 = PRODUCT_DEFINITION_SHAPE ( 'NONE', 'NONE',  #144 ) ;
#24 = CC_DESIGN_PERSON_AND_ORGANIZATION_ASSIGNMENT ( #55, #43, ( #152 ) ) ;
#25 = EDGE_LOOP ( 'NONE', ( #146 ) ) ;
#26 = CARTESIAN_POINT ( 'NONE',  ( 10.50000000000000000, 0.0000000000000000000, 2000.000000000000000 ) ) ;
#27 = CALENDAR_DATE ( 2016, 17, 5 ) ;
#28 = AXIS2_PLACEMENT_3D ( 'NONE', #138, #69, #124 ) ;
#29 = CARTESIAN_POINT ( 'NONE',  ( 12.50000000000000000, 0.0000000000000000000, 0.0000000000000000000 ) ) ;
#30 = DIRECTION ( 'NONE',  ( -0.0000000000000000000, -0.0000000000000000000, -1.000000000000000000 ) ) ;
#31 = APPROVAL_DATE_TIME ( #101, #72 ) ;
#32 = CALENDAR_DATE ( 2016, 17, 5 ) ;
#33 = COORDINATED_UNIVERSAL_TIME_OFFSET ( 3, 0, .AHEAD. ) ;
#34 = DIRECTION ( 'NONE',  ( 0.0000000000000000000, 0.0000000000000000000, 1.000000000000000000 ) ) ;
#35 = ORIENTED_EDGE ( 'NONE', *, *, #66, .F. ) ;
#36 = APPLICATION_PROTOCOL_DEFINITION ( 'international standard', 'config_control_design', 1994, #48 ) ;
#37 = LOCAL_TIME ( 9, 41, 10.00000000000000000, #87 ) ;
#38 = PRODUCT_DEFINITION_FORMATION_WITH_SPECIFIED_SOURCE ( 'ANY', '', #4, .NOT_KNOWN. ) ;
#39 = VERTEX_POINT ( 'NONE', #29 ) ;
#40 = APPROVAL_PERSON_ORGANIZATION ( #136, #63, #15 ) ;
#41 = PERSON_AND_ORGANIZATION ( #109, #155 ) ;
#42 = AXIS2_PLACEMENT_3D ( 'NONE', #83, #30, #110 ) ;
#43 = PERSON_AND_ORGANIZATION_ROLE ( 'classification_officer' ) ;
#44 = PRODUCT_RELATED_PRODUCT_CATEGORY ( 'detail', '', ( #4 ) ) ;
#45 = VERTEX_POINT ( 'NONE', #106 ) ;
#46 = CLOSED_SHELL ( 'NONE', ( #114, #164, #64, #105 ) ) ;
#47 = DIRECTION ( 'NONE',  ( 0.0000000000000000000, 0.0000000000000000000, 1.000000000000000000 ) ) ;
#48 = APPLICATION_CONTEXT ( 'configuration controlled 3d designs of mechanical parts and assemblies' ) ;
#49 = CC_DESIGN_DATE_AND_TIME_ASSIGNMENT ( #145, #150, ( #152 ) ) ;
#50 = APPROVAL_ROLE ( '' ) ;
#51 = DIRECTION ( 'NONE',  ( 1.000000000000000000, 0.0000000000000000000, 0.0000000000000000000 ) ) ;
#52 = AXIS2_PLACEMENT_3D ( 'NONE', #61, #34, #51 ) ;
#53 = AXIS2_PLACEMENT_3D ( 'NONE', #85, #74, #73 ) ;
#54 = AXIS2_PLACEMENT_3D ( 'NONE', #16, #167, #20 ) ;
#55 = PERSON_AND_ORGANIZATION ( #109, #155 ) ;
#56 = AXIS2_PLACEMENT_3D ( 'NONE', #17, #115, #62 ) ;
#57 = AXIS2_PLACEMENT_3D ( 'NONE', #13, #47, #80 ) ;
#58 = EDGE_CURVE ( 'NONE', #45, #45, #162, .T. ) ;
#59 = ADVANCED_BREP_SHAPE_REPRESENTATION ( 'CTR10-025-K02-100-1 T¨ºñð óûðôúð  öõ¸ªúð  ¦=- d25 L¦¦ ¢õ¨ýð  (100ü)', ( #149, #81 ), #22 ) ;
#60 = FACE_OUTER_BOUND ( 'NONE', #119, .T. ) ;
#61 = CARTESIAN_POINT ( 'NONE',  ( 0.0000000000000000000, 0.0000000000000000000, 0.0000000000000000000 ) ) ;
#62 = DIRECTION ( 'NONE',  ( 1.000000000000000000, 0.0000000000000000000, 0.0000000000000000000 ) ) ;
#63 = APPROVAL ( #129, 'UNSPECIFIED' ) ;
#64 = ADVANCED_FACE ( 'NONE', ( #153, #169 ), #112, .T. ) ;
#65 = PERSON_AND_ORGANIZATION ( #109, #155 ) ;
#66 = EDGE_CURVE ( 'NONE', #75, #75, #92, .T. ) ;
#67 = DIRECTION ( 'NONE',  ( 0.0000000000000000000, 0.0000000000000000000, 1.000000000000000000 ) ) ;
#68 = SHAPE_DEFINITION_REPRESENTATION ( #23, #59 ) ;
#69 = DIRECTION ( 'NONE',  ( 0.0000000000000000000, 0.0000000000000000000, 1.000000000000000000 ) ) ;
#70 = EDGE_CURVE ( 'NONE', #82, #82, #159, .T. ) ;
#71 = EDGE_CURVE ( 'NONE', #39, #39, #117, .T. ) ;
#72 = APPROVAL ( #142, 'UNSPECIFIED' ) ;
#73 = DIRECTION ( 'NONE',  ( -1.000000000000000000, 0.0000000000000000000, 0.0000000000000000000 ) ) ;
#74 = DIRECTION ( 'NONE',  ( -0.0000000000000000000, -0.0000000000000000000, -1.000000000000000000 ) ) ;
#75 = VERTEX_POINT ( 'NONE', #21 ) ;
#76 = DATE_AND_TIME ( #79, #168 ) ;
#77 = EDGE_LOOP ( 'NONE', ( #111 ) ) ;
#78 = APPLICATION_PROTOCOL_DEFINITION ( 'international standard', 'config_control_design', 1994, #137 ) ;
#79 = CALENDAR_DATE ( 2016, 17, 5 ) ;
#80 = DIRECTION ( 'NONE',  ( 1.000000000000000000, 0.0000000000000000000, 0.0000000000000000000 ) ) ;
#81 = AXIS2_PLACEMENT_3D ( 'NONE', #14, #107, #7 ) ;
#82 = VERTEX_POINT ( 'NONE', #26 ) ;
#83 = CARTESIAN_POINT ( 'NONE',  ( 0.0000000000000000000, 0.0000000000000000000, 2000.000000000000000 ) ) ;
#84 = EDGE_LOOP ( 'NONE', ( #143 ) ) ;
#85 = CARTESIAN_POINT ( 'NONE',  ( 0.0000000000000000000, 0.0000000000000000000, 2000.000000000000000 ) ) ;
#86 = DATE_TIME_ROLE ( 'creation_date' ) ;
#87 = COORDINATED_UNIVERSAL_TIME_OFFSET ( 3, 0, .AHEAD. ) ;
#88 = FACE_OUTER_BOUND ( 'NONE', #161, .T. ) ;
#89 = ORIENTED_EDGE ( 'NONE', *, *, #58, .F. ) ;
#90 = CALENDAR_DATE ( 2016, 17, 5 ) ;
#91 = UNCERTAINTY_MEASURE_WITH_UNIT (LENGTH_MEASURE( 1.000000000000000100E-005 ), #163, 'distance_accuracy_value', 'NONE');
#92 = CIRCLE ( 'NONE', #54, 10.50000000000000000 ) ;
#93 =( NAMED_UNIT ( * ) PLANE_ANGLE_UNIT ( ) SI_UNIT ( $, .RADIAN. ) );
#94 = PERSON_AND_ORGANIZATION ( #109, #155 ) ;
#95 = CC_DESIGN_APPROVAL ( #116, ( #38 ) ) ;
#96 = FACE_BOUND ( 'NONE', #25, .T. ) ;
#97 = PERSON_AND_ORGANIZATION ( #109, #155 ) ;
#98 = EDGE_LOOP ( 'NONE', ( #89 ) ) ;
#99 = ORIENTED_EDGE ( 'NONE', *, *, #70, .T. ) ;
#100 = CC_DESIGN_PERSON_AND_ORGANIZATION_ASSIGNMENT ( #151, #166, ( #4 ) ) ;
#101 = DATE_AND_TIME ( #27, #123 ) ;
#102 = PERSON_AND_ORGANIZATION_ROLE ( 'creator' ) ;
#103 = PLANE ( 'NONE',  #6 ) ;
#104 = PERSON_AND_ORGANIZATION_ROLE ( 'creator' ) ;
#105 = ADVANCED_FACE ( 'NONE', ( #2, #60 ), #128, .F. ) ;
#106 = CARTESIAN_POINT ( 'NONE',  ( 12.50000000000000000, 0.0000000000000000000, 2000.000000000000000 ) ) ;
#107 = DIRECTION ( 'NONE',  ( 0.0000000000000000000, 0.0000000000000000000, 1.000000000000000000 ) ) ;
#108 = CC_DESIGN_PERSON_AND_ORGANIZATION_ASSIGNMENT ( #141, #102, ( #38 ) ) ;
#109 = PERSON ( 'UNSPECIFIED', 'UNSPECIFIED', 'UNSPECIFIED', ('UNSPECIFIED'), ('UNSPECIFIED'), ('UNSPECIFIED') ) ;
#110 = DIRECTION ( 'NONE',  ( -1.000000000000000000, 0.0000000000000000000, 0.0000000000000000000 ) ) ;
#111 = ORIENTED_EDGE ( 'NONE', *, *, #70, .F. ) ;
#112 = CYLINDRICAL_SURFACE ( 'NONE', #53, 12.50000000000000000 ) ;
#113 =( NAMED_UNIT ( * ) SI_UNIT ( $, .STERADIAN. ) SOLID_ANGLE_UNIT ( ) );
#114 = ADVANCED_FACE ( 'NONE', ( #88, #135 ), #122, .T. ) ;
#115 = DIRECTION ( 'NONE',  ( 0.0000000000000000000, 0.0000000000000000000, 1.000000000000000000 ) ) ;
#116 = APPROVAL ( #9, 'UNSPECIFIED' ) ;
#117 = CIRCLE ( 'NONE', #52, 12.50000000000000000 ) ;
#118 = DESIGN_CONTEXT ( 'detailed design', #137, 'design' ) ;
#119 = EDGE_LOOP ( 'NONE', ( #35 ) ) ;
#120 = APPROVAL_PERSON_ORGANIZATION ( #41, #116, #3 ) ;
#121 = CC_DESIGN_SECURITY_CLASSIFICATION ( #152, ( #38 ) ) ;
#122 = PLANE ( 'NONE',  #28 ) ;
#123 = LOCAL_TIME ( 9, 41, 10.00000000000000000, #157 ) ;
#124 = DIRECTION ( 'NONE',  ( 1.000000000000000000, 0.0000000000000000000, -0.0000000000000000000 ) ) ;
#125 = CC_DESIGN_APPROVAL ( #72, ( #144 ) ) ;
#126 = LOCAL_TIME ( 9, 41, 10.00000000000000000, #134 ) ;
#127 = DIRECTION ( 'NONE',  ( 1.000000000000000000, 0.0000000000000000000, -0.0000000000000000000 ) ) ;
#128 = CYLINDRICAL_SURFACE ( 'NONE', #42, 10.50000000000000000 ) ;
#129 = APPROVAL_STATUS ( 'not_yet_approved' ) ;
#130 = DATE_AND_TIME ( #90, #147 ) ;
#131 = FACE_OUTER_BOUND ( 'NONE', #1, .T. ) ;
#132 = APPROVAL_DATE_TIME ( #130, #116 ) ;
#133 = CC_DESIGN_DATE_AND_TIME_ASSIGNMENT ( #76, #86, ( #144 ) ) ;
#134 = COORDINATED_UNIVERSAL_TIME_OFFSET ( 3, 0, .AHEAD. ) ;
#135 = FACE_BOUND ( 'NONE', #77, .T. ) ;
#136 = PERSON_AND_ORGANIZATION ( #109, #155 ) ;
#137 = APPLICATION_CONTEXT ( 'configuration controlled 3d designs of mechanical parts and assemblies' ) ;
#138 = CARTESIAN_POINT ( 'NONE',  ( 0.0000000000000000000, 0.0000000000000000000, 2000.000000000000000 ) ) ;
#139 = CC_DESIGN_PERSON_AND_ORGANIZATION_ASSIGNMENT ( #65, #104, ( #144 ) ) ;
#140 = CARTESIAN_POINT ( 'NONE',  ( 0.0000000000000000000, 0.0000000000000000000, 0.0000000000000000000 ) ) ;
#141 = PERSON_AND_ORGANIZATION ( #109, #155 ) ;
#142 = APPROVAL_STATUS ( 'not_yet_approved' ) ;
#143 = ORIENTED_EDGE ( 'NONE', *, *, #71, .T. ) ;
#144 = PRODUCT_DEFINITION ( 'UNKNOWN', '', #38, #118 ) ;
#145 = DATE_AND_TIME ( #165, #126 ) ;
#146 = ORIENTED_EDGE ( 'NONE', *, *, #66, .T. ) ;
#147 = LOCAL_TIME ( 9, 41, 10.00000000000000000, #10 ) ;
#148 = EDGE_LOOP ( 'NONE', ( #99 ) ) ;
#149 = MANIFOLD_SOLID_BREP ( 'Áîáûøêà-Âûòÿíóòü1', #46 ) ;
#150 = DATE_TIME_ROLE ( 'classification_date' ) ;
#151 = PERSON_AND_ORGANIZATION ( #109, #155 ) ;
#152 = SECURITY_CLASSIFICATION ( '', '', #5 ) ;
#153 = FACE_OUTER_BOUND ( 'NONE', #98, .T. ) ;
#154 = MECHANICAL_CONTEXT ( 'NONE', #48, 'mechanical' ) ;
#155 = ORGANIZATION ( 'UNSPECIFIED', 'UNSPECIFIED', '' ) ;
#156 = ORIENTED_EDGE ( 'NONE', *, *, #71, .F. ) ;
#157 = COORDINATED_UNIVERSAL_TIME_OFFSET ( 3, 0, .AHEAD. ) ;
#158 = CC_DESIGN_APPROVAL ( #63, ( #152 ) ) ;
#159 = CIRCLE ( 'NONE', #56, 10.50000000000000000 ) ;
#160 = APPROVAL_DATE_TIME ( #11, #63 ) ;
#161 = EDGE_LOOP ( 'NONE', ( #8 ) ) ;
#162 = CIRCLE ( 'NONE', #57, 12.50000000000000000 ) ;
#163 =( LENGTH_UNIT ( ) NAMED_UNIT ( * ) SI_UNIT ( .MILLI., .METRE. ) );
#164 = ADVANCED_FACE ( 'NONE', ( #131, #96 ), #103, .F. ) ;
#165 = CALENDAR_DATE ( 2016, 17, 5 ) ;
#166 = PERSON_AND_ORGANIZATION_ROLE ( 'design_owner' ) ;
#167 = DIRECTION ( 'NONE',  ( 0.0000000000000000000, 0.0000000000000000000, 1.000000000000000000 ) ) ;
#168 = LOCAL_TIME ( 9, 41, 10.00000000000000000, #33 ) ;
#169 = FACE_OUTER_BOUND ( 'NONE', #84, .T. ) ;
ENDSEC;
END-ISO-10303-21;
