ISO-10303-21;
HEADER;
FILE_DESCRIPTION (( 'STEP AP203' ),
    '1' );
FILE_NAME ('Ñîåäèíèòåëüíûå ïëàñòèíû ê ÂÀ-99Ñ (Compact NS) EKF PROxima  100-160À) (öåíòðàëüíÿÿ).STEP',
    '2016-11-02T19:25:03',
    ( '' ),
    ( '' ),
    'SwSTEP 2.0',
    'SolidWorks 2014',
    '' );
FILE_SCHEMA (( 'CONFIG_CONTROL_DESIGN' ));
ENDSEC;

DATA;
#1 = DIRECTION ( 'NONE',  ( -1.000000000000000000, -0.0000000000000000000, -0.0000000000000000000 ) ) ;
#2 = VECTOR ( 'NONE', #142, 1000.000000000000000 ) ;
#3 = APPROVAL ( #133, 'UNSPECIFIED' ) ;
#4 = PERSON_AND_ORGANIZATION_ROLE ( 'design_owner' ) ;
#5 = EDGE_CURVE ( 'NONE', #162, #225, #75, .T. ) ;
#6 = ORIENTED_EDGE ( 'NONE', *, *, #303, .T. ) ;
#7 = ADVANCED_FACE ( 'NONE', ( #228, #153, #373 ), #242, .F. ) ;
#8 = DATE_TIME_ROLE ( 'classification_date' ) ;
#9 = PERSON_AND_ORGANIZATION ( #244, #179 ) ;
#10 = PERSON_AND_ORGANIZATION_ROLE ( 'creator' ) ;
#11 = AXIS2_PLACEMENT_3D ( 'NONE', #355, #30, #273 ) ;
#12 = EDGE_LOOP ( 'NONE', ( #326, #97, #321, #252 ) ) ;
#13 = CALENDAR_DATE ( 2016, 2, 11 ) ;
#14 = CIRCLE ( 'NONE', #323, 5.000000000000000900 ) ;
#15 = CC_DESIGN_PERSON_AND_ORGANIZATION_ASSIGNMENT ( #99, #4, ( #31 ) ) ;
#16 = EDGE_LOOP ( 'NONE', ( #185, #322 ) ) ;
#17 = EDGE_CURVE ( 'NONE', #122, #117, #14, .T. ) ;
#18 = ORIENTED_EDGE ( 'NONE', *, *, #5, .F. ) ;
#19 = APPROVAL_DATE_TIME ( #80, #52 ) ;
#20 = LINE ( 'NONE', #27, #93 ) ;
#21 = AXIS2_PLACEMENT_3D ( 'NONE', #123, #56, #329 ) ;
#22 = ORIENTED_EDGE ( 'NONE', *, *, #358, .T. ) ;
#23 = CARTESIAN_POINT ( 'NONE',  ( 0.0000000000000000000, 26.00000000000000000, -9.000000000000001800 ) ) ;
#24 = EDGE_CURVE ( 'NONE', #196, #162, #294, .T. ) ;
#25 = EDGE_LOOP ( 'NONE', ( #314, #83, #261, #268 ) ) ;
#26 = PLANE ( 'NONE',  #21 ) ;
#27 = CARTESIAN_POINT ( 'NONE',  ( 3.000000000000000000, -15.00000000000000000, -5.000000000000005300 ) ) ;
#28 = LINE ( 'NONE', #176, #172 ) ;
#29 = COORDINATED_UNIVERSAL_TIME_OFFSET ( 3, 0, .AHEAD. ) ;
#30 = DIRECTION ( 'NONE',  ( 1.000000000000000000, 0.0000000000000000000, 0.0000000000000000000 ) ) ;
#31 = PRODUCT ( 'Ñîåäèíèòåëüíûå ïëàñòèíû ê ÂÀ-99Ñ (Compact NS) EKF PROxima  100-160À) (öåíòðàëüíÿÿ)', 'Ñîåäèíèòåëüíûå ïëàñòèíû ê ÂÀ-99Ñ (Compact NS) EKF PROxima  100-160À) (öåíòðàëüíÿÿ)', '', ( #126 ) ) ;
#32 = EDGE_LOOP ( 'NONE', ( #113, #89, #318, #306 ) ) ;
#33 = CARTESIAN_POINT ( 'NONE',  ( 3.000000000000000000, 14.99999999999999800, 1.595642429452132100E-017 ) ) ;
#34 = DATE_AND_TIME ( #366, #349 ) ;
#35 = LINE ( 'NONE', #150, #362 ) ;
#36 = APPROVAL_ROLE ( '' ) ;
#37 = EDGE_CURVE ( 'NONE', #331, #60, #231, .T. ) ;
#38 = DIRECTION ( 'NONE',  ( 0.0000000000000000000, 0.0000000000000000000, -1.000000000000000000 ) ) ;
#39 = DATE_TIME_ROLE ( 'creation_date' ) ;
#40 = ORIENTED_EDGE ( 'NONE', *, *, #241, .F. ) ;
#41 = PRODUCT_RELATED_PRODUCT_CATEGORY ( 'detail', '', ( #31 ) ) ;
#42 = DIRECTION ( 'NONE',  ( 0.0000000000000000000, -0.0000000000000000000, 1.000000000000000000 ) ) ;
#43 = EDGE_CURVE ( 'NONE', #162, #280, #46, .T. ) ;
#44 = EDGE_LOOP ( 'NONE', ( #112, #286 ) ) ;
#45 = ADVANCED_FACE ( 'NONE', ( #194 ), #282, .F. ) ;
#46 = LINE ( 'NONE', #148, #109 ) ;
#47 = ORIENTED_EDGE ( 'NONE', *, *, #288, .F. ) ;
#48 = LINE ( 'NONE', #67, #51 ) ;
#49 = AXIS2_PLACEMENT_3D ( 'NONE', #85, #61, #149 ) ;
#50 = ORIENTED_EDGE ( 'NONE', *, *, #144, .F. ) ;
#51 = VECTOR ( 'NONE', #337, 1000.000000000000000 ) ;
#52 = APPROVAL ( #332, 'UNSPECIFIED' ) ;
#53 = UNCERTAINTY_MEASURE_WITH_UNIT (LENGTH_MEASURE( 1.000000000000000100E-005 ), #278, 'distance_accuracy_value', 'NONE');
#54 = DIRECTION ( 'NONE',  ( 0.0000000000000000000, 0.0000000000000000000, -1.000000000000000000 ) ) ;
#55 = CYLINDRICAL_SURFACE ( 'NONE', #140, 5.000000000000000900 ) ;
#56 = DIRECTION ( 'NONE',  ( 0.0000000000000000000, 0.0000000000000000000, -1.000000000000000000 ) ) ;
#57 = CARTESIAN_POINT ( 'NONE',  ( 3.000000000000000000, -15.00000000000000000, -3.214856020766169200E-015 ) ) ;
#58 = DIRECTION ( 'NONE',  ( 0.0000000000000000000, 0.0000000000000000000, -1.000000000000000000 ) ) ;
#59 = EDGE_CURVE ( 'NONE', #196, #191, #309, .T. ) ;
#60 = VERTEX_POINT ( 'NONE', #382 ) ;
#61 = DIRECTION ( 'NONE',  ( 1.000000000000000000, 0.0000000000000000000, 0.0000000000000000000 ) ) ;
#62 = CALENDAR_DATE ( 2016, 2, 11 ) ;
#63 = CYLINDRICAL_SURFACE ( 'NONE', #77, 5.000000000000001800 ) ;
#64 = DIRECTION ( 'NONE',  ( -1.000000000000000000, -0.0000000000000000000, -0.0000000000000000000 ) ) ;
#65 = CARTESIAN_POINT ( 'NONE',  ( 0.0000000000000000000, 0.0000000000000000000, 0.0000000000000000000 ) ) ;
#66 = DIRECTION ( 'NONE',  ( -1.000000000000000000, -0.0000000000000000000, -0.0000000000000000000 ) ) ;
#67 = CARTESIAN_POINT ( 'NONE',  ( 3.000000000000000000, 26.00000000000000000, -9.000000000000001800 ) ) ;
#68 = VECTOR ( 'NONE', #130, 1000.000000000000000 ) ;
#69 = MANIFOLD_SOLID_BREP ( 'Áîáûøêà-Âûòÿíóòü1', #71 ) ;
#70 = DIRECTION ( 'NONE',  ( 0.0000000000000000000, 0.0000000000000000000, -1.000000000000000000 ) ) ;
#71 = CLOSED_SHELL ( 'NONE', ( #45, #74, #164, #7, #107, #345, #160, #100, #192, #222 ) ) ;
#72 = AXIS2_PLACEMENT_3D ( 'NONE', #311, #127, #42 ) ;
#73 = CC_DESIGN_PERSON_AND_ORGANIZATION_ASSIGNMENT ( #320, #163, ( #119 ) ) ;
#74 = ADVANCED_FACE ( 'NONE', ( #263 ), #55, .F. ) ;
#75 = LINE ( 'NONE', #86, #2 ) ;
#76 = FACE_OUTER_BOUND ( 'NONE', #102, .T. ) ;
#77 = AXIS2_PLACEMENT_3D ( 'NONE', #57, #121, #233 ) ;
#78 = EDGE_LOOP ( 'NONE', ( #168, #313, #40, #170 ) ) ;
#79 = APPROVAL_PERSON_ORGANIZATION ( #81, #319, #101 ) ;
#80 = DATE_AND_TIME ( #13, #92 ) ;
#81 = PERSON_AND_ORGANIZATION ( #244, #179 ) ;
#82 = LINE ( 'NONE', #281, #68 ) ;
#83 = ORIENTED_EDGE ( 'NONE', *, *, #260, .F. ) ;
#84 = CARTESIAN_POINT ( 'NONE',  ( 3.000000000000000000, 14.99999999999999800, 1.595642429452132100E-017 ) ) ;
#85 = CARTESIAN_POINT ( 'NONE',  ( 3.000000000000000000, -15.00000000000000000, -3.214856020766169200E-015 ) ) ;
#86 = CARTESIAN_POINT ( 'NONE',  ( 3.000000000000000000, -26.00000000000000000, 8.999999999999998200 ) ) ;
#87 = DIRECTION ( 'NONE',  ( 0.0000000000000000000, 0.0000000000000000000, 1.000000000000000000 ) ) ;
#88 = CC_DESIGN_DATE_AND_TIME_ASSIGNMENT ( #223, #8, ( #199 ) ) ;
#89 = ORIENTED_EDGE ( 'NONE', *, *, #214, .T. ) ;
#90 = DIRECTION ( 'NONE',  ( 0.0000000000000000000, -0.0000000000000000000, -1.000000000000000000 ) ) ;
#91 = DIRECTION ( 'NONE',  ( 1.000000000000000000, 0.0000000000000000000, 0.0000000000000000000 ) ) ;
#92 = LOCAL_TIME ( 22, 25, 3.000000000000000000, #339 ) ;
#93 = VECTOR ( 'NONE', #206, 1000.000000000000000 ) ;
#94 = CARTESIAN_POINT ( 'NONE',  ( 0.0000000000000000000, 0.0000000000000000000, 0.0000000000000000000 ) ) ;
#95 =( NAMED_UNIT ( * ) PLANE_ANGLE_UNIT ( ) SI_UNIT ( $, .RADIAN. ) );
#96 =( GEOMETRIC_REPRESENTATION_CONTEXT ( 3 ) GLOBAL_UNCERTAINTY_ASSIGNED_CONTEXT ( ( #53 ) ) GLOBAL_UNIT_ASSIGNED_CONTEXT ( ( #278, #95, #336 ) ) REPRESENTATION_CONTEXT ( 'NONE', 'WORKASPACE' ) );
#97 = ORIENTED_EDGE ( 'NONE', *, *, #144, .T. ) ;
#98 = DIRECTION ( 'NONE',  ( 1.000000000000000000, 0.0000000000000000000, 0.0000000000000000000 ) ) ;
#99 = PERSON_AND_ORGANIZATION ( #244, #179 ) ;
#100 = ADVANCED_FACE ( 'NONE', ( #76 ), #146, .F. ) ;
#101 = APPROVAL_ROLE ( '' ) ;
#102 = EDGE_LOOP ( 'NONE', ( #265, #189, #154, #6 ) ) ;
#103 = ORIENTED_EDGE ( 'NONE', *, *, #197, .T. ) ;
#104 = ORIENTED_EDGE ( 'NONE', *, *, #43, .T. ) ;
#105 = PERSON_AND_ORGANIZATION ( #244, #179 ) ;
#106 = VECTOR ( 'NONE', #385, 1000.000000000000000 ) ;
#107 = ADVANCED_FACE ( 'NONE', ( #156 ), #26, .F. ) ;
#108 = EDGE_LOOP ( 'NONE', ( #236, #262, #246, #219 ) ) ;
#109 = VECTOR ( 'NONE', #234, 1000.000000000000000 ) ;
#110 = APPROVAL_DATE_TIME ( #238, #319 ) ;
#111 = PRODUCT_DEFINITION ( 'UNKNOWN', '', #119, #229 ) ;
#112 = ORIENTED_EDGE ( 'NONE', *, *, #232, .F. ) ;
#113 = ORIENTED_EDGE ( 'NONE', *, *, #371, .T. ) ;
#114 = LOCAL_TIME ( 22, 25, 3.000000000000000000, #308 ) ;
#115 = VECTOR ( 'NONE', #1, 1000.000000000000000 ) ;
#116 = PRODUCT_DEFINITION_SHAPE ( 'NONE', 'NONE',  #111 ) ;
#117 = VERTEX_POINT ( 'NONE', #299 ) ;
#118 = LINE ( 'NONE', #359, #129 ) ;
#119 = PRODUCT_DEFINITION_FORMATION_WITH_SPECIFIED_SOURCE ( 'ANY', '', #31, .NOT_KNOWN. ) ;
#120 = CARTESIAN_POINT ( 'NONE',  ( 0.0000000000000000000, 26.00000000000000000, 8.999999999999998200 ) ) ;
#121 = DIRECTION ( 'NONE',  ( -1.000000000000000000, -0.0000000000000000000, -0.0000000000000000000 ) ) ;
#122 = VERTEX_POINT ( 'NONE', #301 ) ;
#123 = CARTESIAN_POINT ( 'NONE',  ( 3.000000000000000000, -26.00000000000000000, 8.999999999999998200 ) ) ;
#124 = CARTESIAN_POINT ( 'NONE',  ( 0.0000000000000000000, 14.99999999999999800, -5.000000000000000900 ) ) ;
#125 = VECTOR ( 'NONE', #208, 1000.000000000000000 ) ;
#126 = MECHANICAL_CONTEXT ( 'NONE', #305, 'mechanical' ) ;
#127 = DIRECTION ( 'NONE',  ( 0.0000000000000000000, 1.000000000000000000, 0.0000000000000000000 ) ) ;
#128 = VERTEX_POINT ( 'NONE', #175 ) ;
#129 = VECTOR ( 'NONE', #132, 1000.000000000000000 ) ;
#130 = DIRECTION ( 'NONE',  ( -1.000000000000000000, -0.0000000000000000000, -0.0000000000000000000 ) ) ;
#131 = EDGE_CURVE ( 'NONE', #280, #351, #35, .T. ) ;
#132 = DIRECTION ( 'NONE',  ( -0.0000000000000000000, -1.000000000000000000, -0.0000000000000000000 ) ) ;
#133 = APPROVAL_STATUS ( 'not_yet_approved' ) ;
#134 = ORIENTED_EDGE ( 'NONE', *, *, #24, .F. ) ;
#135 = CIRCLE ( 'NONE', #11, 5.000000000000000900 ) ;
#136 = CC_DESIGN_APPROVAL ( #319, ( #119 ) ) ;
#137 = FACE_OUTER_BOUND ( 'NONE', #108, .T. ) ;
#138 = ORIENTED_EDGE ( 'NONE', *, *, #312, .F. ) ;
#139 = LINE ( 'NONE', #275, #367 ) ;
#140 = AXIS2_PLACEMENT_3D ( 'NONE', #84, #64, #211 ) ;
#141 = CIRCLE ( 'NONE', #295, 5.000000000000000900 ) ;
#142 = DIRECTION ( 'NONE',  ( -1.000000000000000000, -0.0000000000000000000, -0.0000000000000000000 ) ) ;
#143 = CARTESIAN_POINT ( 'NONE',  ( 3.000000000000000000, 14.99999999999999800, 1.595642429452132100E-017 ) ) ;
#144 = EDGE_CURVE ( 'NONE', #292, #331, #215, .T. ) ;
#145 = ORIENTED_EDGE ( 'NONE', *, *, #279, .T. ) ;
#146 = PLANE ( 'NONE',  #335 ) ;
#147 = CARTESIAN_POINT ( 'NONE',  ( 3.000000000000000000, 14.99999999999999800, 5.000000000000000900 ) ) ;
#148 = CARTESIAN_POINT ( 'NONE',  ( 3.000000000000000000, -26.00000000000000000, -9.000000000000001800 ) ) ;
#149 = DIRECTION ( 'NONE',  ( 0.0000000000000000000, 0.0000000000000000000, -1.000000000000000000 ) ) ;
#150 = CARTESIAN_POINT ( 'NONE',  ( 3.000000000000000000, -26.00000000000000000, -9.000000000000001800 ) ) ;
#151 = AXIS2_PLACEMENT_3D ( 'NONE', #237, #357, #270 ) ;
#152 = DIRECTION ( 'NONE',  ( 0.0000000000000000000, 1.000000000000000000, 0.0000000000000000000 ) ) ;
#153 = FACE_OUTER_BOUND ( 'NONE', #25, .T. ) ;
#154 = ORIENTED_EDGE ( 'NONE', *, *, #358, .F. ) ;
#155 = CARTESIAN_POINT ( 'NONE',  ( 0.0000000000000000000, 14.99999999999999800, 5.000000000000000900 ) ) ;
#156 = FACE_OUTER_BOUND ( 'NONE', #283, .T. ) ;
#157 = PERSON_AND_ORGANIZATION_ROLE ( 'creator' ) ;
#158 = DIRECTION ( 'NONE',  ( -1.000000000000000000, -0.0000000000000000000, -0.0000000000000000000 ) ) ;
#159 = AXIS2_PLACEMENT_3D ( 'NONE', #340, #284, #38 ) ;
#160 = ADVANCED_FACE ( 'NONE', ( #137 ), #383, .F. ) ;
#161 = CARTESIAN_POINT ( 'NONE',  ( 3.000000000000000000, -15.00000000000000000, 4.999999999999998200 ) ) ;
#162 = VERTEX_POINT ( 'NONE', #327 ) ;
#163 = PERSON_AND_ORGANIZATION_ROLE ( 'design_supplier' ) ;
#164 = ADVANCED_FACE ( 'NONE', ( #344, #224, #186 ), #330, .T. ) ;
#165 = ORIENTED_EDGE ( 'NONE', *, *, #287, .T. ) ;
#166 = VECTOR ( 'NONE', #180, 1000.000000000000000 ) ;
#167 = AXIS2_PLACEMENT_3D ( 'NONE', #328, #209, #243 ) ;
#168 = ORIENTED_EDGE ( 'NONE', *, *, #232, .T. ) ;
#169 = APPROVAL_PERSON_ORGANIZATION ( #253, #52, #36 ) ;
#170 = ORIENTED_EDGE ( 'NONE', *, *, #197, .F. ) ;
#171 = CC_DESIGN_PERSON_AND_ORGANIZATION_ASSIGNMENT ( #105, #10, ( #119 ) ) ;
#172 = VECTOR ( 'NONE', #379, 1000.000000000000000 ) ;
#173 = EDGE_CURVE ( 'NONE', #251, #60, #274, .T. ) ;
#174 = ORIENTED_EDGE ( 'NONE', *, *, #190, .T. ) ;
#175 = CARTESIAN_POINT ( 'NONE',  ( 0.0000000000000000000, 26.00000000000000000, -9.000000000000001800 ) ) ;
#176 = CARTESIAN_POINT ( 'NONE',  ( 0.0000000000000000000, -26.00000000000000000, -9.000000000000001800 ) ) ;
#177 = ORIENTED_EDGE ( 'NONE', *, *, #24, .T. ) ;
#178 = CARTESIAN_POINT ( 'NONE',  ( 3.000000000000000000, 0.0000000000000000000, 0.0000000000000000000 ) ) ;
#179 = ORGANIZATION ( 'UNSPECIFIED', 'UNSPECIFIED', '' ) ;
#180 = DIRECTION ( 'NONE',  ( -1.000000000000000000, -0.0000000000000000000, -0.0000000000000000000 ) ) ;
#181 = CARTESIAN_POINT ( 'NONE',  ( 3.000000000000000000, 26.00000000000000000, -9.000000000000001800 ) ) ;
#182 = EDGE_LOOP ( 'NONE', ( #174, #338, #300, #348 ) ) ;
#183 = DIRECTION ( 'NONE',  ( 0.0000000000000000000, 1.000000000000000000, 0.0000000000000000000 ) ) ;
#184 = DIRECTION ( 'NONE',  ( 0.0000000000000000000, 0.0000000000000000000, 1.000000000000000000 ) ) ;
#185 = ORIENTED_EDGE ( 'NONE', *, *, #241, .T. ) ;
#186 = FACE_BOUND ( 'NONE', #346, .T. ) ;
#187 = CARTESIAN_POINT ( 'NONE',  ( 0.0000000000000000000, 14.99999999999999800, 1.595642429452132100E-017 ) ) ;
#188 = CC_DESIGN_PERSON_AND_ORGANIZATION_ASSIGNMENT ( #193, #157, ( #111 ) ) ;
#189 = ORIENTED_EDGE ( 'NONE', *, *, #59, .F. ) ;
#190 = EDGE_CURVE ( 'NONE', #225, #255, #28, .T. ) ;
#191 = VERTEX_POINT ( 'NONE', #120 ) ;
#192 = ADVANCED_FACE ( 'NONE', ( #350 ), #325, .F. ) ;
#193 = PERSON_AND_ORGANIZATION ( #244, #179 ) ;
#194 = FACE_OUTER_BOUND ( 'NONE', #32, .T. ) ;
#195 = CC_DESIGN_SECURITY_CLASSIFICATION ( #199, ( #119 ) ) ;
#196 = VERTEX_POINT ( 'NONE', #203 ) ;
#197 = EDGE_CURVE ( 'NONE', #117, #381, #317, .T. ) ;
#198 = EDGE_LOOP ( 'NONE', ( #177, #104, #372, #22 ) ) ;
#199 = SECURITY_CLASSIFICATION ( '', '', #368 ) ;
#200 = DIRECTION ( 'NONE',  ( 0.0000000000000000000, 0.0000000000000000000, -1.000000000000000000 ) ) ;
#201 = FACE_OUTER_BOUND ( 'NONE', #182, .T. ) ;
#202 = CARTESIAN_POINT ( 'NONE',  ( 3.000000000000000000, -26.00000000000000000, 8.999999999999998200 ) ) ;
#203 = CARTESIAN_POINT ( 'NONE',  ( 3.000000000000000000, 26.00000000000000000, 8.999999999999998200 ) ) ;
#204 = DIRECTION ( 'NONE',  ( 1.000000000000000000, 0.0000000000000000000, -0.0000000000000000000 ) ) ;
#205 = DIRECTION ( 'NONE',  ( 0.0000000000000000000, -1.000000000000000000, 0.0000000000000000000 ) ) ;
#206 = DIRECTION ( 'NONE',  ( -1.000000000000000000, -0.0000000000000000000, -0.0000000000000000000 ) ) ;
#207 = ORIENTED_EDGE ( 'NONE', *, *, #371, .F. ) ;
#208 = DIRECTION ( 'NONE',  ( -0.0000000000000000000, -1.000000000000000000, -0.0000000000000000000 ) ) ;
#209 = DIRECTION ( 'NONE',  ( 1.000000000000000000, 0.0000000000000000000, 0.0000000000000000000 ) ) ;
#210 = CIRCLE ( 'NONE', #159, 5.000000000000001800 ) ;
#211 = DIRECTION ( 'NONE',  ( 0.0000000000000000000, 0.0000000000000000000, 1.000000000000000000 ) ) ;
#212 = APPLICATION_PROTOCOL_DEFINITION ( 'international standard', 'config_control_design', 1994, #305 ) ;
#213 = CARTESIAN_POINT ( 'NONE',  ( 3.000000000000000000, -15.00000000000000000, -3.214856020766169200E-015 ) ) ;
#214 = EDGE_CURVE ( 'NONE', #292, #251, #20, .T. ) ;
#215 = CIRCLE ( 'NONE', #49, 5.000000000000001800 ) ;
#216 = APPLICATION_PROTOCOL_DEFINITION ( 'international standard', 'config_control_design', 1994, #310 ) ;
#217 = PLANE ( 'NONE',  #72 ) ;
#218 = APPROVAL_ROLE ( '' ) ;
#219 = ORIENTED_EDGE ( 'NONE', *, *, #291, .T. ) ;
#220 = CALENDAR_DATE ( 2016, 2, 11 ) ;
#221 = FACE_OUTER_BOUND ( 'NONE', #12, .T. ) ;
#222 = ADVANCED_FACE ( 'NONE', ( #221 ), #63, .F. ) ;
#223 = DATE_AND_TIME ( #220, #333 ) ;
#224 = FACE_OUTER_BOUND ( 'NONE', #198, .T. ) ;
#225 = VERTEX_POINT ( 'NONE', #267 ) ;
#226 = APPROVAL_DATE_TIME ( #34, #3 ) ;
#227 = AXIS2_PLACEMENT_3D ( 'NONE', #269, #264, #204 ) ;
#228 = FACE_BOUND ( 'NONE', #16, .T. ) ;
#229 = DESIGN_CONTEXT ( 'detailed design', #310, 'design' ) ;
#230 = CALENDAR_DATE ( 2016, 2, 11 ) ;
#231 = LINE ( 'NONE', #354, #115 ) ;
#232 = EDGE_CURVE ( 'NONE', #117, #122, #135, .T. ) ;
#233 = DIRECTION ( 'NONE',  ( 0.0000000000000000000, 0.0000000000000000000, 1.000000000000000000 ) ) ;
#234 = DIRECTION ( 'NONE',  ( -0.0000000000000000000, -0.0000000000000000000, -1.000000000000000000 ) ) ;
#235 = CARTESIAN_POINT ( 'NONE',  ( 0.0000000000000000000, -15.00000000000000000, -3.214856020766169200E-015 ) ) ;
#236 = ORIENTED_EDGE ( 'NONE', *, *, #342, .T. ) ;
#237 = CARTESIAN_POINT ( 'NONE',  ( 3.000000000000000000, -15.00000000000000000, -3.214856020766169200E-015 ) ) ;
#238 = DATE_AND_TIME ( #62, #114 ) ;
#239 = DIRECTION ( 'NONE',  ( 1.000000000000000000, 0.0000000000000000000, 0.0000000000000000000 ) ) ;
#240 = DIRECTION ( 'NONE',  ( 0.0000000000000000000, 0.0000000000000000000, 1.000000000000000000 ) ) ;
#241 = EDGE_CURVE ( 'NONE', #381, #258, #375, .T. ) ;
#242 = PLANE ( 'NONE',  #360 ) ;
#243 = DIRECTION ( 'NONE',  ( 0.0000000000000000000, 0.0000000000000000000, -1.000000000000000000 ) ) ;
#244 = PERSON ( 'UNSPECIFIED', 'UNSPECIFIED', 'UNSPECIFIED', ('UNSPECIFIED'), ('UNSPECIFIED'), ('UNSPECIFIED') ) ;
#245 = CARTESIAN_POINT ( 'NONE',  ( 3.000000000000000000, 26.00000000000000000, -9.000000000000001800 ) ) ;
#246 = ORIENTED_EDGE ( 'NONE', *, *, #131, .F. ) ;
#247 = CARTESIAN_POINT ( 'NONE',  ( 3.000000000000000000, 26.00000000000000000, -9.000000000000001800 ) ) ;
#248 = VECTOR ( 'NONE', #66, 1000.000000000000000 ) ;
#249 = CARTESIAN_POINT ( 'NONE',  ( 3.000000000000000000, -26.00000000000000000, -9.000000000000001800 ) ) ;
#250 = APPROVAL_STATUS ( 'not_yet_approved' ) ;
#251 = VERTEX_POINT ( 'NONE', #352 ) ;
#252 = ORIENTED_EDGE ( 'NONE', *, *, #173, .F. ) ;
#253 = PERSON_AND_ORGANIZATION ( #244, #179 ) ;
#254 = APPROVAL_PERSON_ORGANIZATION ( #9, #3, #218 ) ;
#255 = VERTEX_POINT ( 'NONE', #304 ) ;
#256 = AXIS2_PLACEMENT_3D ( 'NONE', #235, #297, #200 ) ;
#257 = LINE ( 'NONE', #23, #290 ) ;
#258 = VERTEX_POINT ( 'NONE', #124 ) ;
#259 = COORDINATED_UNIVERSAL_TIME_OFFSET ( 3, 0, .AHEAD. ) ;
#260 = EDGE_CURVE ( 'NONE', #128, #191, #257, .T. ) ;
#261 = ORIENTED_EDGE ( 'NONE', *, *, #342, .F. ) ;
#262 = ORIENTED_EDGE ( 'NONE', *, *, #303, .F. ) ;
#263 = FACE_OUTER_BOUND ( 'NONE', #78, .T. ) ;
#264 = DIRECTION ( 'NONE',  ( 0.0000000000000000000, 0.0000000000000000000, 1.000000000000000000 ) ) ;
#265 = ORIENTED_EDGE ( 'NONE', *, *, #260, .T. ) ;
#266 = CARTESIAN_POINT ( 'NONE',  ( 3.000000000000000000, 26.00000000000000000, 8.999999999999998200 ) ) ;
#267 = CARTESIAN_POINT ( 'NONE',  ( 0.0000000000000000000, -26.00000000000000000, 8.999999999999998200 ) ) ;
#268 = ORIENTED_EDGE ( 'NONE', *, *, #190, .F. ) ;
#269 = CARTESIAN_POINT ( 'NONE',  ( 3.000000000000000000, -26.00000000000000000, -9.000000000000001800 ) ) ;
#270 = DIRECTION ( 'NONE',  ( 0.0000000000000000000, 0.0000000000000000000, 1.000000000000000000 ) ) ;
#271 = DIRECTION ( 'NONE',  ( -1.000000000000000000, -0.0000000000000000000, -0.0000000000000000000 ) ) ;
#272 = EDGE_LOOP ( 'NONE', ( #138, #356, #103, #47 ) ) ;
#273 = DIRECTION ( 'NONE',  ( 0.0000000000000000000, 0.0000000000000000000, -1.000000000000000000 ) ) ;
#274 = CIRCLE ( 'NONE', #256, 5.000000000000001800 ) ;
#275 = CARTESIAN_POINT ( 'NONE',  ( 0.0000000000000000000, -26.00000000000000000, -9.000000000000001800 ) ) ;
#276 = AXIS2_PLACEMENT_3D ( 'NONE', #143, #271, #87 ) ;
#277 = DIRECTION ( 'NONE',  ( 1.000000000000000000, 0.0000000000000000000, 0.0000000000000000000 ) ) ;
#278 =( LENGTH_UNIT ( ) NAMED_UNIT ( * ) SI_UNIT ( .MILLI., .METRE. ) );
#279 = EDGE_CURVE ( 'NONE', #60, #251, #210, .T. ) ;
#280 = VERTEX_POINT ( 'NONE', #361 ) ;
#281 = CARTESIAN_POINT ( 'NONE',  ( 3.000000000000000000, 14.99999999999999800, -5.000000000000000900 ) ) ;
#282 = CYLINDRICAL_SURFACE ( 'NONE', #151, 5.000000000000001800 ) ;
#283 = EDGE_LOOP ( 'NONE', ( #165, #18, #134, #343 ) ) ;
#284 = DIRECTION ( 'NONE',  ( 1.000000000000000000, 0.0000000000000000000, 0.0000000000000000000 ) ) ;
#285 = AXIS2_PLACEMENT_3D ( 'NONE', #213, #277, #363 ) ;
#286 = ORIENTED_EDGE ( 'NONE', *, *, #17, .F. ) ;
#287 = EDGE_CURVE ( 'NONE', #191, #225, #118, .T. ) ;
#288 = EDGE_CURVE ( 'NONE', #258, #381, #141, .T. ) ;
#289 = AXIS2_PLACEMENT_3D ( 'NONE', #94, #184, #91 ) ;
#290 = VECTOR ( 'NONE', #240, 1000.000000000000000 ) ;
#291 = EDGE_CURVE ( 'NONE', #280, #255, #347, .T. ) ;
#292 = VERTEX_POINT ( 'NONE', #307 ) ;
#293 = SHAPE_DEFINITION_REPRESENTATION ( #116, #370 ) ;
#294 = LINE ( 'NONE', #202, #125 ) ;
#295 = AXIS2_PLACEMENT_3D ( 'NONE', #187, #98, #70 ) ;
#296 = CIRCLE ( 'NONE', #285, 5.000000000000001800 ) ;
#297 = DIRECTION ( 'NONE',  ( 1.000000000000000000, 0.0000000000000000000, 0.0000000000000000000 ) ) ;
#298 = CC_DESIGN_APPROVAL ( #52, ( #111 ) ) ;
#299 = CARTESIAN_POINT ( 'NONE',  ( 3.000000000000000000, 14.99999999999999800, 5.000000000000000900 ) ) ;
#300 = ORIENTED_EDGE ( 'NONE', *, *, #43, .F. ) ;
#301 = CARTESIAN_POINT ( 'NONE',  ( 3.000000000000000000, 14.99999999999999800, -5.000000000000000900 ) ) ;
#302 = VECTOR ( 'NONE', #158, 1000.000000000000000 ) ;
#303 = EDGE_CURVE ( 'NONE', #351, #128, #334, .T. ) ;
#304 = CARTESIAN_POINT ( 'NONE',  ( 0.0000000000000000000, -26.00000000000000000, -9.000000000000001800 ) ) ;
#305 = APPLICATION_CONTEXT ( 'configuration controlled 3d designs of mechanical parts and assemblies' ) ;
#306 = ORIENTED_EDGE ( 'NONE', *, *, #37, .F. ) ;
#307 = CARTESIAN_POINT ( 'NONE',  ( 3.000000000000000000, -15.00000000000000000, -5.000000000000005300 ) ) ;
#308 = COORDINATED_UNIVERSAL_TIME_OFFSET ( 3, 0, .AHEAD. ) ;
#309 = LINE ( 'NONE', #266, #166 ) ;
#310 = APPLICATION_CONTEXT ( 'configuration controlled 3d designs of mechanical parts and assemblies' ) ;
#311 = CARTESIAN_POINT ( 'NONE',  ( 3.000000000000000000, -26.00000000000000000, -9.000000000000001800 ) ) ;
#312 = EDGE_CURVE ( 'NONE', #122, #258, #82, .T. ) ;
#313 = ORIENTED_EDGE ( 'NONE', *, *, #312, .T. ) ;
#314 = ORIENTED_EDGE ( 'NONE', *, *, #287, .F. ) ;
#315 = CC_DESIGN_DATE_AND_TIME_ASSIGNMENT ( #324, #39, ( #111 ) ) ;
#316 = LOCAL_TIME ( 22, 25, 3.000000000000000000, #341 ) ;
#317 = LINE ( 'NONE', #147, #106 ) ;
#318 = ORIENTED_EDGE ( 'NONE', *, *, #279, .F. ) ;
#319 = APPROVAL ( #250, 'UNSPECIFIED' ) ;
#320 = PERSON_AND_ORGANIZATION ( #244, #179 ) ;
#321 = ORIENTED_EDGE ( 'NONE', *, *, #37, .T. ) ;
#322 = ORIENTED_EDGE ( 'NONE', *, *, #288, .T. ) ;
#323 = AXIS2_PLACEMENT_3D ( 'NONE', #33, #239, #58 ) ;
#324 = DATE_AND_TIME ( #230, #316 ) ;
#325 = CYLINDRICAL_SURFACE ( 'NONE', #276, 5.000000000000000900 ) ;
#326 = ORIENTED_EDGE ( 'NONE', *, *, #214, .F. ) ;
#327 = CARTESIAN_POINT ( 'NONE',  ( 3.000000000000000000, -26.00000000000000000, 8.999999999999998200 ) ) ;
#328 = CARTESIAN_POINT ( 'NONE',  ( 0.0000000000000000000, 14.99999999999999800, 1.595642429452132100E-017 ) ) ;
#329 = DIRECTION ( 'NONE',  ( -1.000000000000000000, 0.0000000000000000000, -0.0000000000000000000 ) ) ;
#330 = PLANE ( 'NONE',  #377 ) ;
#331 = VERTEX_POINT ( 'NONE', #161 ) ;
#332 = APPROVAL_STATUS ( 'not_yet_approved' ) ;
#333 = LOCAL_TIME ( 22, 25, 3.000000000000000000, #259 ) ;
#334 = LINE ( 'NONE', #247, #302 ) ;
#335 = AXIS2_PLACEMENT_3D ( 'NONE', #181, #205, #90 ) ;
#336 =( NAMED_UNIT ( * ) SI_UNIT ( $, .STERADIAN. ) SOLID_ANGLE_UNIT ( ) );
#337 = DIRECTION ( 'NONE',  ( 0.0000000000000000000, 0.0000000000000000000, 1.000000000000000000 ) ) ;
#338 = ORIENTED_EDGE ( 'NONE', *, *, #291, .F. ) ;
#339 = COORDINATED_UNIVERSAL_TIME_OFFSET ( 3, 0, .AHEAD. ) ;
#340 = CARTESIAN_POINT ( 'NONE',  ( 0.0000000000000000000, -15.00000000000000000, -3.214856020766169200E-015 ) ) ;
#341 = COORDINATED_UNIVERSAL_TIME_OFFSET ( 3, 0, .AHEAD. ) ;
#342 = EDGE_CURVE ( 'NONE', #255, #128, #139, .T. ) ;
#343 = ORIENTED_EDGE ( 'NONE', *, *, #59, .T. ) ;
#344 = FACE_BOUND ( 'NONE', #44, .T. ) ;
#345 = ADVANCED_FACE ( 'NONE', ( #201 ), #217, .F. ) ;
#346 = EDGE_LOOP ( 'NONE', ( #207, #50 ) ) ;
#347 = LINE ( 'NONE', #249, #248 ) ;
#348 = ORIENTED_EDGE ( 'NONE', *, *, #5, .T. ) ;
#349 = LOCAL_TIME ( 22, 25, 3.000000000000000000, #29 ) ;
#350 = FACE_OUTER_BOUND ( 'NONE', #272, .T. ) ;
#351 = VERTEX_POINT ( 'NONE', #245 ) ;
#352 = CARTESIAN_POINT ( 'NONE',  ( 0.0000000000000000000, -15.00000000000000000, -5.000000000000005300 ) ) ;
#353 = CC_DESIGN_APPROVAL ( #3, ( #199 ) ) ;
#354 = CARTESIAN_POINT ( 'NONE',  ( 3.000000000000000000, -15.00000000000000000, 4.999999999999998200 ) ) ;
#355 = CARTESIAN_POINT ( 'NONE',  ( 3.000000000000000000, 14.99999999999999800, 1.595642429452132100E-017 ) ) ;
#356 = ORIENTED_EDGE ( 'NONE', *, *, #17, .T. ) ;
#357 = DIRECTION ( 'NONE',  ( -1.000000000000000000, -0.0000000000000000000, -0.0000000000000000000 ) ) ;
#358 = EDGE_CURVE ( 'NONE', #351, #196, #48, .T. ) ;
#359 = CARTESIAN_POINT ( 'NONE',  ( 0.0000000000000000000, -26.00000000000000000, 8.999999999999998200 ) ) ;
#360 = AXIS2_PLACEMENT_3D ( 'NONE', #65, #380, #378 ) ;
#361 = CARTESIAN_POINT ( 'NONE',  ( 3.000000000000000000, -26.00000000000000000, -9.000000000000001800 ) ) ;
#362 = VECTOR ( 'NONE', #183, 1000.000000000000000 ) ;
#363 = DIRECTION ( 'NONE',  ( 0.0000000000000000000, 0.0000000000000000000, -1.000000000000000000 ) ) ;
#364 = ORIENTED_EDGE ( 'NONE', *, *, #173, .T. ) ;
#365 = PERSON_AND_ORGANIZATION_ROLE ( 'classification_officer' ) ;
#366 = CALENDAR_DATE ( 2016, 2, 11 ) ;
#367 = VECTOR ( 'NONE', #152, 1000.000000000000000 ) ;
#368 = SECURITY_CLASSIFICATION_LEVEL ( 'unclassified' ) ;
#369 = CC_DESIGN_PERSON_AND_ORGANIZATION_ASSIGNMENT ( #384, #365, ( #199 ) ) ;
#370 = ADVANCED_BREP_SHAPE_REPRESENTATION ( 'Tþõôøýøªõû¹ývõ ÿûð¸ªøýv ú TL-99T (Compact NS) EKF PROxima  100-160L) (¡õýª¨ðû¹ý  )', ( #69, #289 ), #96 ) ;
#371 = EDGE_CURVE ( 'NONE', #331, #292, #296, .T. ) ;
#372 = ORIENTED_EDGE ( 'NONE', *, *, #131, .T. ) ;
#373 = FACE_BOUND ( 'NONE', #374, .T. ) ;
#374 = EDGE_LOOP ( 'NONE', ( #145, #364 ) ) ;
#375 = CIRCLE ( 'NONE', #167, 5.000000000000000900 ) ;
#376 = DIRECTION ( 'NONE',  ( 1.000000000000000000, 0.0000000000000000000, 0.0000000000000000000 ) ) ;
#377 = AXIS2_PLACEMENT_3D ( 'NONE', #178, #376, #54 ) ;
#378 = DIRECTION ( 'NONE',  ( 0.0000000000000000000, 0.0000000000000000000, -1.000000000000000000 ) ) ;
#379 = DIRECTION ( 'NONE',  ( -0.0000000000000000000, -0.0000000000000000000, -1.000000000000000000 ) ) ;
#380 = DIRECTION ( 'NONE',  ( 1.000000000000000000, 0.0000000000000000000, 0.0000000000000000000 ) ) ;
#381 = VERTEX_POINT ( 'NONE', #155 ) ;
#382 = CARTESIAN_POINT ( 'NONE',  ( 0.0000000000000000000, -15.00000000000000000, 4.999999999999998200 ) ) ;
#383 = PLANE ( 'NONE',  #227 ) ;
#384 = PERSON_AND_ORGANIZATION ( #244, #179 ) ;
#385 = DIRECTION ( 'NONE',  ( -1.000000000000000000, -0.0000000000000000000, -0.0000000000000000000 ) ) ;
ENDSEC;
END-ISO-10303-21;
