ISO-10303-21;
HEADER;
FILE_DESCRIPTION (( 'STEP AP203' ),
    '1' );
FILE_NAME ('Êðûøêà íà óãîë âåðòèêàëüíûé âíåøíèé CDSD 90_38285.STEP',
    '2012-11-09T08:45:06',
    ( 'Àñååâ' ),
    ( '' ),
    'SwSTEP 2.0',
    'SolidWorks 2012',
    '' );
FILE_SCHEMA (( 'CONFIG_CONTROL_DESIGN' ));
ENDSEC;

DATA;
#1 = PERSON ( 'UNSPECIFIED', 'UNSPECIFIED', 'UNSPECIFIED', ('UNSPECIFIED'), ('UNSPECIFIED'), ('UNSPECIFIED') ) ;
#2 = PRODUCT ( 'Êðûøêà íà óãîë âåðòèêàëüíûé âíåøíèé CDSD 90_38285', 'Êðûøêà íà óãîë âåðòèêàëüíûé âíåøíèé CDSD 90_38285', '', ( #237 ) ) ;
#3 = FACE_OUTER_BOUND ( 'NONE', #20, .T. ) ;
#4 = CYLINDRICAL_SURFACE ( 'NONE', #224, 2.500000000000002200 ) ;
#5 = FACE_OUTER_BOUND ( 'NONE', #23, .T. ) ;
#6 = FACE_BOUND ( 'NONE', #12, .T. ) ;
#7 = FACE_OUTER_BOUND ( 'NONE', #27, .T. ) ;
#8 = FACE_OUTER_BOUND ( 'NONE', #25, .T. ) ;
#9 = FACE_BOUND ( 'NONE', #13, .T. ) ;
#10 = FACE_OUTER_BOUND ( 'NONE', #14, .T. ) ;
#11 = FACE_OUTER_BOUND ( 'NONE', #26, .T. ) ;
#12 = EDGE_LOOP ( 'NONE', ( #182 ) ) ;
#13 = EDGE_LOOP ( 'NONE', ( #167 ) ) ;
#14 = EDGE_LOOP ( 'NONE', ( #192, #173, #178, #172 ) ) ;
#15 = EDGE_LOOP ( 'NONE', ( #162, #163, #160, #161 ) ) ;
#16 = EDGE_LOOP ( 'NONE', ( #151 ) ) ;
#17 = EDGE_LOOP ( 'NONE', ( #174, #157, #200, #150 ) ) ;
#18 = EDGE_LOOP ( 'NONE', ( #149, #191, #165, #164 ) ) ;
#19 = EDGE_LOOP ( 'NONE', ( #146 ) ) ;
#20 = EDGE_LOOP ( 'NONE', ( #180 ) ) ;
#21 = EDGE_LOOP ( 'NONE', ( #171, #170, #169, #168 ) ) ;
#22 = EDGE_LOOP ( 'NONE', ( #201, #155, #194, #156 ) ) ;
#23 = EDGE_LOOP ( 'NONE', ( #159, #187, #186, #184, #185, #183, #189, #188 ) ) ;
#24 = EDGE_LOOP ( 'NONE', ( #179 ) ) ;
#25 = EDGE_LOOP ( 'NONE', ( #190 ) ) ;
#26 = EDGE_LOOP ( 'NONE', ( #177 ) ) ;
#27 = EDGE_LOOP ( 'NONE', ( #193, #166, #205, #153, #158, #196, #204, #175 ) ) ;
#28 = EDGE_LOOP ( 'NONE', ( #147, #199, #148, #203 ) ) ;
#29 = VERTEX_POINT ( 'NONE', #410 ) ;
#30 = VERTEX_POINT ( 'NONE', #406 ) ;
#31 = VERTEX_POINT ( 'NONE', #434 ) ;
#32 = VERTEX_POINT ( 'NONE', #427 ) ;
#33 = VERTEX_POINT ( 'NONE', #437 ) ;
#34 = VERTEX_POINT ( 'NONE', #436 ) ;
#35 = VERTEX_POINT ( 'NONE', #420 ) ;
#36 = VERTEX_POINT ( 'NONE', #422 ) ;
#37 = VERTEX_POINT ( 'NONE', #412 ) ;
#38 = APPROVAL_DATE_TIME ( #39, #306 ) ;
#39 = DATE_AND_TIME ( #40, #41 ) ;
#40 = CALENDAR_DATE ( 2012, 9, 11 ) ;
#41 = LOCAL_TIME ( 12, 45, 5.000000000000000000, #42 ) ;
#42 = COORDINATED_UNIVERSAL_TIME_OFFSET ( 4, 0, .AHEAD. ) ;
#43 = APPROVAL_PERSON_ORGANIZATION ( #44, #306, #258 ) ;
#44 = PERSON_AND_ORGANIZATION ( #1, #72 ) ;
#45 = DATE_AND_TIME ( #46, #47 ) ;
#46 = CALENDAR_DATE ( 2012, 9, 11 ) ;
#47 = LOCAL_TIME ( 12, 45, 5.000000000000000000, #48 ) ;
#48 = COORDINATED_UNIVERSAL_TIME_OFFSET ( 4, 0, .AHEAD. ) ;
#49 = PERSON_AND_ORGANIZATION ( #1, #72 ) ;
#50 = PERSON_AND_ORGANIZATION ( #1, #72 ) ;
#51 = PERSON_AND_ORGANIZATION ( #1, #72 ) ;
#52 = APPROVAL_DATE_TIME ( #53, #308 ) ;
#53 = DATE_AND_TIME ( #54, #55 ) ;
#54 = CALENDAR_DATE ( 2012, 9, 11 ) ;
#55 = LOCAL_TIME ( 12, 45, 5.000000000000000000, #56 ) ;
#56 = COORDINATED_UNIVERSAL_TIME_OFFSET ( 4, 0, .AHEAD. ) ;
#57 = APPROVAL_PERSON_ORGANIZATION ( #58, #308, #228 ) ;
#58 = PERSON_AND_ORGANIZATION ( #1, #72 ) ;
#59 = DATE_AND_TIME ( #60, #61 ) ;
#60 = CALENDAR_DATE ( 2012, 9, 11 ) ;
#61 = LOCAL_TIME ( 12, 45, 5.000000000000000000, #62 ) ;
#62 = COORDINATED_UNIVERSAL_TIME_OFFSET ( 4, 0, .AHEAD. ) ;
#63 = PERSON_AND_ORGANIZATION ( #1, #72 ) ;
#64 = APPROVAL_DATE_TIME ( #65, #261 ) ;
#65 = DATE_AND_TIME ( #66, #67 ) ;
#66 = CALENDAR_DATE ( 2012, 9, 11 ) ;
#67 = LOCAL_TIME ( 12, 45, 5.000000000000000000, #68 ) ;
#68 = COORDINATED_UNIVERSAL_TIME_OFFSET ( 4, 0, .AHEAD. ) ;
#69 = APPROVAL_PERSON_ORGANIZATION ( #70, #261, #232 ) ;
#70 = PERSON_AND_ORGANIZATION ( #1, #72 ) ;
#71 = PERSON_AND_ORGANIZATION ( #1, #72 ) ;
#72 = ORGANIZATION ( 'UNSPECIFIED', 'UNSPECIFIED', '' ) ;
#73 = VERTEX_POINT ( 'NONE', #245 ) ;
#74 = VERTEX_POINT ( 'NONE', #251 ) ;
#75 = VERTEX_POINT ( 'NONE', #250 ) ;
#76 = VERTEX_POINT ( 'NONE', #249 ) ;
#77 = FACE_OUTER_BOUND ( 'NONE', #197, .T. ) ;
#78 = SHAPE_DEFINITION_REPRESENTATION ( #315, #206 ) ;
#79 = FACE_BOUND ( 'NONE', #19, .T. ) ;
#80 = FACE_OUTER_BOUND ( 'NONE', #15, .T. ) ;
#81 = FACE_OUTER_BOUND ( 'NONE', #22, .T. ) ;
#82 = FACE_OUTER_BOUND ( 'NONE', #18, .T. ) ;
#83 = FACE_BOUND ( 'NONE', #16, .T. ) ;
#84 = VECTOR ( 'NONE', #354, 1000.000000000000000 ) ;
#85 = FACE_OUTER_BOUND ( 'NONE', #28, .T. ) ;
#86 = VECTOR ( 'NONE', #357, 1000.000000000000000 ) ;
#87 = LINE ( 'NONE', #356, #84 ) ;
#88 = VERTEX_POINT ( 'NONE', #403 ) ;
#89 = VECTOR ( 'NONE', #358, 1000.000000000000000 ) ;
#90 = FACE_OUTER_BOUND ( 'NONE', #21, .T. ) ;
#91 = LINE ( 'NONE', #361, #89 ) ;
#92 = VECTOR ( 'NONE', #365, 1000.000000000000000 ) ;
#93 = VECTOR ( 'NONE', #362, 1000.000000000000000 ) ;
#94 = CIRCLE ( 'NONE', #299, 2.500000000000002200 ) ;
#95 = LINE ( 'NONE', #379, #93 ) ;
#96 = LINE ( 'NONE', #384, #92 ) ;
#97 = VECTOR ( 'NONE', #381, 1000.000000000000000 ) ;
#98 = CIRCLE ( 'NONE', #215, 2.500000000000002200 ) ;
#99 = VECTOR ( 'NONE', #382, 1000.000000000000000 ) ;
#100 = LINE ( 'NONE', #363, #86 ) ;
#101 = VECTOR ( 'NONE', #388, 1000.000000000000000 ) ;
#102 = LINE ( 'NONE', #386, #99 ) ;
#103 = VECTOR ( 'NONE', #390, 1000.000000000000000 ) ;
#104 = LINE ( 'NONE', #396, #97 ) ;
#105 = VECTOR ( 'NONE', #393, 1000.000000000000000 ) ;
#106 = LINE ( 'NONE', #391, #103 ) ;
#107 = VECTOR ( 'NONE', #394, 1000.000000000000000 ) ;
#108 = LINE ( 'NONE', #407, #101 ) ;
#109 = VECTOR ( 'NONE', #398, 1000.000000000000000 ) ;
#110 = LINE ( 'NONE', #397, #107 ) ;
#111 = VECTOR ( 'NONE', #401, 1000.000000000000000 ) ;
#112 = LINE ( 'NONE', #400, #109 ) ;
#113 = VECTOR ( 'NONE', #404, 1000.000000000000000 ) ;
#114 = LINE ( 'NONE', #402, #111 ) ;
#115 = VECTOR ( 'NONE', #405, 1000.000000000000000 ) ;
#116 = LINE ( 'NONE', #415, #105 ) ;
#117 = VERTEX_POINT ( 'NONE', #399 ) ;
#118 = VECTOR ( 'NONE', #409, 1000.000000000000000 ) ;
#119 = LINE ( 'NONE', #408, #115 ) ;
#120 = VECTOR ( 'NONE', #413, 1000.000000000000000 ) ;
#121 = LINE ( 'NONE', #411, #118 ) ;
#122 = LINE ( 'NONE', #426, #113 ) ;
#123 = VECTOR ( 'NONE', #417, 1000.000000000000000 ) ;
#124 = VECTOR ( 'NONE', #414, 1000.000000000000000 ) ;
#125 = CIRCLE ( 'NONE', #219, 2.500000000000002200 ) ;
#126 = LINE ( 'NONE', #428, #124 ) ;
#127 = LINE ( 'NONE', #430, #123 ) ;
#128 = VECTOR ( 'NONE', #429, 1000.000000000000000 ) ;
#129 = CIRCLE ( 'NONE', #217, 2.500000000000002200 ) ;
#130 = VECTOR ( 'NONE', #431, 1000.000000000000000 ) ;
#131 = LINE ( 'NONE', #416, #120 ) ;
#132 = VECTOR ( 'NONE', #432, 1000.000000000000000 ) ;
#133 = LINE ( 'NONE', #433, #128 ) ;
#134 = VECTOR ( 'NONE', #332, 1000.000000000000000 ) ;
#135 = LINE ( 'NONE', #319, #130 ) ;
#136 = CYLINDRICAL_SURFACE ( 'NONE', #216, 2.500000000000002200 ) ;
#137 = LINE ( 'NONE', #323, #132 ) ;
#138 = FACE_OUTER_BOUND ( 'NONE', #24, .T. ) ;
#139 = LINE ( 'NONE', #331, #140 ) ;
#140 = VECTOR ( 'NONE', #435, 1000.000000000000000 ) ;
#141 = VERTEX_POINT ( 'NONE', #395 ) ;
#142 = VERTEX_POINT ( 'NONE', #392 ) ;
#143 = VERTEX_POINT ( 'NONE', #389 ) ;
#144 = VERTEX_POINT ( 'NONE', #387 ) ;
#145 = VERTEX_POINT ( 'NONE', #385 ) ;
#146 = ORIENTED_EDGE ( 'NONE', *, *, #292, .F. ) ;
#147 = ORIENTED_EDGE ( 'NONE', *, *, #295, .T. ) ;
#148 = ORIENTED_EDGE ( 'NONE', *, *, #283, .F. ) ;
#149 = ORIENTED_EDGE ( 'NONE', *, *, #276, .F. ) ;
#150 = ORIENTED_EDGE ( 'NONE', *, *, #263, .T. ) ;
#151 = ORIENTED_EDGE ( 'NONE', *, *, #291, .F. ) ;
#152 = ORIENTED_EDGE ( 'NONE', *, *, #275, .T. ) ;
#153 = ORIENTED_EDGE ( 'NONE', *, *, #272, .F. ) ;
#154 = ORIENTED_EDGE ( 'NONE', *, *, #271, .T. ) ;
#155 = ORIENTED_EDGE ( 'NONE', *, *, #297, .F. ) ;
#156 = ORIENTED_EDGE ( 'NONE', *, *, #289, .T. ) ;
#157 = ORIENTED_EDGE ( 'NONE', *, *, #271, .F. ) ;
#158 = ORIENTED_EDGE ( 'NONE', *, *, #275, .F. ) ;
#159 = ORIENTED_EDGE ( 'NONE', *, *, #295, .F. ) ;
#160 = ORIENTED_EDGE ( 'NONE', *, *, #290, .F. ) ;
#161 = ORIENTED_EDGE ( 'NONE', *, *, #278, .T. ) ;
#162 = ORIENTED_EDGE ( 'NONE', *, *, #288, .T. ) ;
#163 = ORIENTED_EDGE ( 'NONE', *, *, #289, .F. ) ;
#164 = ORIENTED_EDGE ( 'NONE', *, *, #274, .T. ) ;
#165 = ORIENTED_EDGE ( 'NONE', *, *, #279, .T. ) ;
#166 = ORIENTED_EDGE ( 'NONE', *, *, #255, .F. ) ;
#167 = ORIENTED_EDGE ( 'NONE', *, *, #265, .F. ) ;
#168 = ORIENTED_EDGE ( 'NONE', *, *, #248, .T. ) ;
#169 = ORIENTED_EDGE ( 'NONE', *, *, #264, .T. ) ;
#170 = ORIENTED_EDGE ( 'NONE', *, *, #263, .F. ) ;
#171 = ORIENTED_EDGE ( 'NONE', *, *, #260, .F. ) ;
#172 = ORIENTED_EDGE ( 'NONE', *, *, #298, .T. ) ;
#173 = ORIENTED_EDGE ( 'NONE', *, *, #248, .F. ) ;
#174 = ORIENTED_EDGE ( 'NONE', *, *, #270, .F. ) ;
#175 = ORIENTED_EDGE ( 'NONE', *, *, #294, .T. ) ;
#176 = CLOSED_SHELL ( 'NONE', ( #310, #211, #313, #212, #314, #309, #312, #311, #209, #213, #210, #214 ) ) ;
#177 = ORIENTED_EDGE ( 'NONE', *, *, #292, .T. ) ;
#178 = ORIENTED_EDGE ( 'NONE', *, *, #255, .T. ) ;
#179 = ORIENTED_EDGE ( 'NONE', *, *, #291, .T. ) ;
#180 = ORIENTED_EDGE ( 'NONE', *, *, #265, .T. ) ;
#181 = LINE ( 'NONE', #325, #134 ) ;
#182 = ORIENTED_EDGE ( 'NONE', *, *, #269, .F. ) ;
#183 = ORIENTED_EDGE ( 'NONE', *, *, #270, .T. ) ;
#184 = ORIENTED_EDGE ( 'NONE', *, *, #276, .T. ) ;
#185 = ORIENTED_EDGE ( 'NONE', *, *, #273, .T. ) ;
#186 = ORIENTED_EDGE ( 'NONE', *, *, #288, .F. ) ;
#187 = ORIENTED_EDGE ( 'NONE', *, *, #293, .F. ) ;
#188 = ORIENTED_EDGE ( 'NONE', *, *, #277, .T. ) ;
#189 = ORIENTED_EDGE ( 'NONE', *, *, #260, .T. ) ;
#190 = ORIENTED_EDGE ( 'NONE', *, *, #269, .T. ) ;
#191 = ORIENTED_EDGE ( 'NONE', *, *, #278, .F. ) ;
#192 = ORIENTED_EDGE ( 'NONE', *, *, #277, .F. ) ;
#193 = ORIENTED_EDGE ( 'NONE', *, *, #283, .T. ) ;
#194 = ORIENTED_EDGE ( 'NONE', *, *, #294, .F. ) ;
#195 = ORIENTED_EDGE ( 'NONE', *, *, #273, .F. ) ;
#196 = ORIENTED_EDGE ( 'NONE', *, *, #279, .F. ) ;
#197 = EDGE_LOOP ( 'NONE', ( #195, #202, #152, #154 ) ) ;
#198 = FACE_OUTER_BOUND ( 'NONE', #17, .T. ) ;
#199 = ORIENTED_EDGE ( 'NONE', *, *, #298, .F. ) ;
#200 = ORIENTED_EDGE ( 'NONE', *, *, #272, .T. ) ;
#201 = ORIENTED_EDGE ( 'NONE', *, *, #293, .T. ) ;
#202 = ORIENTED_EDGE ( 'NONE', *, *, #274, .F. ) ;
#203 = ORIENTED_EDGE ( 'NONE', *, *, #297, .T. ) ;
#204 = ORIENTED_EDGE ( 'NONE', *, *, #290, .T. ) ;
#205 = ORIENTED_EDGE ( 'NONE', *, *, #264, .F. ) ;
#206 = ADVANCED_BREP_SHAPE_REPRESENTATION ( '¦¨v°úð ýð ºóþû òõ¨ªøúðû¹ývù òýõ°ýøù CDSD 90_38285', ( #207, #282 ), #259 ) ;
#207 = MANIFOLD_SOLID_BREP ( 'Âûðåç-Âûòÿíóòü1', #176 ) ;
#208 = UNCERTAINTY_MEASURE_WITH_UNIT (LENGTH_MEASURE( 1.000000000000000100E-005 ), #243, 'distance_accuracy_value', 'NONE');
#209 = ADVANCED_FACE ( 'NONE', ( #7 ), #380, .F. ) ;
#210 = ADVANCED_FACE ( 'NONE', ( #8, #11 ), #4, .F. ) ;
#211 = ADVANCED_FACE ( 'NONE', ( #10 ), #366, .T. ) ;
#212 = ADVANCED_FACE ( 'NONE', ( #9, #6, #198 ), #345, .T. ) ;
#213 = ADVANCED_FACE ( 'NONE', ( #5 ), #337, .T. ) ;
#214 = ADVANCED_FACE ( 'NONE', ( #3, #138 ), #136, .F. ) ;
#215 = AXIS2_PLACEMENT_3D ( 'NONE', #377, #375, #374 ) ;
#216 = AXIS2_PLACEMENT_3D ( 'NONE', #321, #336, #350 ) ;
#217 = AXIS2_PLACEMENT_3D ( 'NONE', #425, #424, #423 ) ;
#218 = AXIS2_PLACEMENT_3D ( 'NONE', #343, #326, #334 ) ;
#219 = AXIS2_PLACEMENT_3D ( 'NONE', #421, #419, #418 ) ;
#220 = AXIS2_PLACEMENT_3D ( 'NONE', #352, #364, #340 ) ;
#221 = SECURITY_CLASSIFICATION ( '', '', #253 ) ;
#222 = AXIS2_PLACEMENT_3D ( 'NONE', #367, #360, #353 ) ;
#223 = AXIS2_PLACEMENT_3D ( 'NONE', #335, #328, #327 ) ;
#224 = AXIS2_PLACEMENT_3D ( 'NONE', #371, #383, #378 ) ;
#225 = AXIS2_PLACEMENT_3D ( 'NONE', #376, #373, #372 ) ;
#226 = PERSON_AND_ORGANIZATION_ROLE ( 'design_supplier' ) ;
#227 = PERSON_AND_ORGANIZATION_ROLE ( 'creator' ) ;
#228 = APPROVAL_ROLE ( '' ) ;
#229 = APPROVAL_STATUS ( 'not_yet_approved' ) ;
#230 = DATE_TIME_ROLE ( 'creation_date' ) ;
#231 = PERSON_AND_ORGANIZATION_ROLE ( 'creator' ) ;
#232 = APPROVAL_ROLE ( '' ) ;
#233 = APPROVAL_STATUS ( 'not_yet_approved' ) ;
#234 = APPLICATION_PROTOCOL_DEFINITION ( 'international standard', 'config_control_design', 1994, #235 ) ;
#235 = APPLICATION_CONTEXT ( 'configuration controlled 3d designs of mechanical parts and assemblies' ) ;
#236 = PERSON_AND_ORGANIZATION_ROLE ( 'design_owner' ) ;
#237 = MECHANICAL_CONTEXT ( 'NONE', #239, 'mechanical' ) ;
#238 = DIRECTION ( 'NONE',  ( 1.000000000000000000, 0.0000000000000000000, 0.0000000000000000000 ) ) ;
#239 = APPLICATION_CONTEXT ( 'configuration controlled 3d designs of mechanical parts and assemblies' ) ;
#240 = APPLICATION_PROTOCOL_DEFINITION ( 'international standard', 'config_control_design', 1994, #239 ) ;
#241 =( NAMED_UNIT ( * ) SI_UNIT ( $, .STERADIAN. ) SOLID_ANGLE_UNIT ( ) );
#242 =( NAMED_UNIT ( * ) PLANE_ANGLE_UNIT ( ) SI_UNIT ( $, .RADIAN. ) );
#243 =( LENGTH_UNIT ( ) NAMED_UNIT ( * ) SI_UNIT ( .MILLI., .METRE. ) );
#244 = DIRECTION ( 'NONE',  ( 0.0000000000000000000, 0.0000000000000000000, 1.000000000000000000 ) ) ;
#245 = CARTESIAN_POINT ( 'NONE',  ( 1.734723475976807100E-015, 0.0000000000000000000, 17.49999999999999600 ) ) ;
#246 = CARTESIAN_POINT ( 'NONE',  ( 0.0000000000000000000, 0.0000000000000000000, 0.0000000000000000000 ) ) ;
#247 = DIRECTION ( 'NONE',  ( 0.0000000000000000000, 0.0000000000000000000, 1.000000000000000000 ) ) ;
#248 = EDGE_CURVE ( 'NONE', #36, #143, #139, .T. ) ;
#249 = CARTESIAN_POINT ( 'NONE',  ( 0.0000000000000000000, 0.8000000000000000400, 413.5000000000000600 ) ) ;
#250 = CARTESIAN_POINT ( 'NONE',  ( 1.734723475976807100E-015, 0.8000000000000000400, 17.49999999999999600 ) ) ;
#251 = CARTESIAN_POINT ( 'NONE',  ( 0.0000000000000000000, 0.0000000000000000000, 418.5000000000000600 ) ) ;
#252 = PERSON_AND_ORGANIZATION_ROLE ( 'classification_officer' ) ;
#253 = SECURITY_CLASSIFICATION_LEVEL ( 'unclassified' ) ;
#254 = CC_DESIGN_APPROVAL ( #306, ( #221 ) ) ;
#255 = EDGE_CURVE ( 'NONE', #36, #88, #181, .T. ) ;
#256 = DATE_TIME_ROLE ( 'classification_date' ) ;
#257 = APPROVAL_STATUS ( 'not_yet_approved' ) ;
#258 = APPROVAL_ROLE ( '' ) ;
#259 =( GEOMETRIC_REPRESENTATION_CONTEXT ( 3 ) GLOBAL_UNCERTAINTY_ASSIGNED_CONTEXT ( ( #208 ) ) GLOBAL_UNIT_ASSIGNED_CONTEXT ( ( #243, #242, #241 ) ) REPRESENTATION_CONTEXT ( 'NONE', 'WORKASPACE' ) );
#260 = EDGE_CURVE ( 'NONE', #31, #143, #137, .T. ) ;
#261 = APPROVAL ( #233, 'UNSPECIFIED' ) ;
#262 = CC_DESIGN_APPROVAL ( #308, ( #296 ) ) ;
#263 = EDGE_CURVE ( 'NONE', #117, #31, #135, .T. ) ;
#264 = EDGE_CURVE ( 'NONE', #117, #36, #133, .T. ) ;
#265 = EDGE_CURVE ( 'NONE', #76, #76, #129, .T. ) ;
#266 = AXIS2_PLACEMENT_3D ( 'NONE', #355, #344, #342 ) ;
#267 = CC_DESIGN_DATE_AND_TIME_ASSIGNMENT ( #45, #256, ( #221 ) ) ;
#268 = CC_DESIGN_APPROVAL ( #261, ( #284 ) ) ;
#269 = EDGE_CURVE ( 'NONE', #75, #75, #125, .T. ) ;
#270 = EDGE_CURVE ( 'NONE', #145, #31, #127, .T. ) ;
#271 = EDGE_CURVE ( 'NONE', #37, #145, #126, .T. ) ;
#272 = EDGE_CURVE ( 'NONE', #37, #117, #131, .T. ) ;
#273 = EDGE_CURVE ( 'NONE', #29, #145, #121, .T. ) ;
#274 = EDGE_CURVE ( 'NONE', #33, #29, #119, .T. ) ;
#275 = EDGE_CURVE ( 'NONE', #33, #37, #122, .T. ) ;
#276 = EDGE_CURVE ( 'NONE', #30, #29, #114, .T. ) ;
#277 = EDGE_CURVE ( 'NONE', #143, #35, #112, .T. ) ;
#278 = EDGE_CURVE ( 'NONE', #34, #30, #110, .T. ) ;
#279 = EDGE_CURVE ( 'NONE', #34, #33, #116, .T. ) ;
#280 = CC_DESIGN_DATE_AND_TIME_ASSIGNMENT ( #59, #230, ( #284 ) ) ;
#281 = AXIS2_PLACEMENT_3D ( 'NONE', #339, #322, #320 ) ;
#282 = AXIS2_PLACEMENT_3D ( 'NONE', #246, #244, #238 ) ;
#283 = EDGE_CURVE ( 'NONE', #144, #88, #106, .T. ) ;
#284 = PRODUCT_DEFINITION ( 'UNKNOWN', '', #296, #316 ) ;
#285 = AXIS2_PLACEMENT_3D ( 'NONE', #341, #351, #333 ) ;
#286 = CC_DESIGN_PERSON_AND_ORGANIZATION_ASSIGNMENT ( #63, #231, ( #284 ) ) ;
#287 = AXIS2_PLACEMENT_3D ( 'NONE', #349, #348, #347 ) ;
#288 = EDGE_CURVE ( 'NONE', #30, #142, #108, .T. ) ;
#289 = EDGE_CURVE ( 'NONE', #141, #142, #102, .T. ) ;
#290 = EDGE_CURVE ( 'NONE', #34, #141, #104, .T. ) ;
#291 = EDGE_CURVE ( 'NONE', #74, #74, #98, .T. ) ;
#292 = EDGE_CURVE ( 'NONE', #73, #73, #94, .T. ) ;
#293 = EDGE_CURVE ( 'NONE', #142, #32, #96, .T. ) ;
#294 = EDGE_CURVE ( 'NONE', #141, #144, #95, .T. ) ;
#295 = EDGE_CURVE ( 'NONE', #32, #35, #91, .T. ) ;
#296 = PRODUCT_DEFINITION_FORMATION_WITH_SPECIFIED_SOURCE ( 'ANY', '', #2, .NOT_KNOWN. ) ;
#297 = EDGE_CURVE ( 'NONE', #144, #32, #100, .T. ) ;
#298 = EDGE_CURVE ( 'NONE', #88, #35, #87, .T. ) ;
#299 = AXIS2_PLACEMENT_3D ( 'NONE', #370, #369, #368 ) ;
#300 = AXIS2_PLACEMENT_3D ( 'NONE', #329, #317, #247 ) ;
#301 = CC_DESIGN_PERSON_AND_ORGANIZATION_ASSIGNMENT ( #51, #227, ( #296 ) ) ;
#302 = CC_DESIGN_PERSON_AND_ORGANIZATION_ASSIGNMENT ( #49, #252, ( #221 ) ) ;
#303 = PRODUCT_RELATED_PRODUCT_CATEGORY ( 'detail', '', ( #2 ) ) ;
#304 = CC_DESIGN_SECURITY_CLASSIFICATION ( #221, ( #296 ) ) ;
#305 = CC_DESIGN_PERSON_AND_ORGANIZATION_ASSIGNMENT ( #50, #226, ( #296 ) ) ;
#306 = APPROVAL ( #257, 'UNSPECIFIED' ) ;
#307 = CC_DESIGN_PERSON_AND_ORGANIZATION_ASSIGNMENT ( #71, #236, ( #2 ) ) ;
#308 = APPROVAL ( #229, 'UNSPECIFIED' ) ;
#309 = ADVANCED_FACE ( 'NONE', ( #82 ), #359, .T. ) ;
#310 = ADVANCED_FACE ( 'NONE', ( #85 ), #346, .F. ) ;
#311 = ADVANCED_FACE ( 'NONE', ( #83, #79, #81 ), #338, .F. ) ;
#312 = ADVANCED_FACE ( 'NONE', ( #80 ), #330, .F. ) ;
#313 = ADVANCED_FACE ( 'NONE', ( #90 ), #324, .T. ) ;
#314 = ADVANCED_FACE ( 'NONE', ( #77 ), #318, .T. ) ;
#315 = PRODUCT_DEFINITION_SHAPE ( 'NONE', 'NONE',  #284 ) ;
#316 = DESIGN_CONTEXT ( 'detailed design', #235, 'design' ) ;
#317 = DIRECTION ( 'NONE',  ( -1.000000000000000000, 0.0000000000000000000, 0.0000000000000000000 ) ) ;
#318 = PLANE ( 'NONE',  #300 ) ;
#319 = CARTESIAN_POINT ( 'NONE',  ( 151.7999999999999800, 0.8000000000000000400, 431.0000000000000000 ) ) ;
#320 = DIRECTION ( 'NONE',  ( -0.0000000000000000000, 0.0000000000000000000, -1.000000000000000000 ) ) ;
#321 = CARTESIAN_POINT ( 'NONE',  ( 0.0000000000000000000, -14.00099999999999900, 416.0000000000000600 ) ) ;
#322 = DIRECTION ( 'NONE',  ( 1.000000000000000000, 0.0000000000000000000, -0.0000000000000000000 ) ) ;
#323 = CARTESIAN_POINT ( 'NONE',  ( 151.7999999999999800, 0.0000000000000000000, 0.0000000000000000000 ) ) ;
#324 = PLANE ( 'NONE',  #281 ) ;
#325 = CARTESIAN_POINT ( 'NONE',  ( 151.7999999999999800, -14.00000000000000000, 431.0000000000000000 ) ) ;
#326 = DIRECTION ( 'NONE',  ( -0.0000000000000000000, 0.0000000000000000000, -1.000000000000000000 ) ) ;
#327 = DIRECTION ( 'NONE',  ( 0.0000000000000000000, 0.0000000000000000000, 1.000000000000000000 ) ) ;
#328 = DIRECTION ( 'NONE',  ( -1.000000000000000000, 0.0000000000000000000, 0.0000000000000000000 ) ) ;
#329 = CARTESIAN_POINT ( 'NONE',  ( -151.7999999999999800, 0.0000000000000000000, 431.0000000000000000 ) ) ;
#330 = PLANE ( 'NONE',  #223 ) ;
#331 = CARTESIAN_POINT ( 'NONE',  ( 151.7999999999999800, -14.00000000000000000, 431.0000000000000000 ) ) ;
#332 = DIRECTION ( 'NONE',  ( -1.000000000000000000, 0.0000000000000000000, 0.0000000000000000000 ) ) ;
#333 = DIRECTION ( 'NONE',  ( 0.0000000000000000000, -0.0000000000000000000, 1.000000000000000000 ) ) ;
#334 = DIRECTION ( 'NONE',  ( -1.000000000000000000, 0.0000000000000000000, 0.0000000000000000000 ) ) ;
#335 = CARTESIAN_POINT ( 'NONE',  ( -151.0000000000000000, 0.0000000000000000000, 431.0000000000000000 ) ) ;
#336 = DIRECTION ( 'NONE',  ( -0.0000000000000000000, 1.000000000000000000, -0.0000000000000000000 ) ) ;
#337 = PLANE ( 'NONE',  #218 ) ;
#338 = PLANE ( 'NONE',  #285 ) ;
#339 = CARTESIAN_POINT ( 'NONE',  ( 151.7999999999999800, 0.0000000000000000000, 431.0000000000000000 ) ) ;
#340 = DIRECTION ( 'NONE',  ( 0.0000000000000000000, -0.0000000000000000000, 1.000000000000000000 ) ) ;
#341 = CARTESIAN_POINT ( 'NONE',  ( -151.0000000000000000, 0.0000000000000000000, 431.0000000000000000 ) ) ;
#342 = DIRECTION ( 'NONE',  ( -0.0000000000000000000, 0.0000000000000000000, -1.000000000000000000 ) ) ;
#343 = CARTESIAN_POINT ( 'NONE',  ( 0.0000000000000000000, 0.0000000000000000000, 0.0000000000000000000 ) ) ;
#344 = DIRECTION ( 'NONE',  ( 1.000000000000000000, 0.0000000000000000000, -0.0000000000000000000 ) ) ;
#345 = PLANE ( 'NONE',  #220 ) ;
#346 = PLANE ( 'NONE',  #266 ) ;
#347 = DIRECTION ( 'NONE',  ( 0.0000000000000000000, -0.0000000000000000000, -1.000000000000000000 ) ) ;
#348 = DIRECTION ( 'NONE',  ( 0.0000000000000000000, -1.000000000000000000, 0.0000000000000000000 ) ) ;
#349 = CARTESIAN_POINT ( 'NONE',  ( -151.0000000000000000, -14.00000000000000000, 431.0000000000000000 ) ) ;
#350 = DIRECTION ( 'NONE',  ( 0.0000000000000000000, 0.0000000000000000000, 1.000000000000000000 ) ) ;
#351 = DIRECTION ( 'NONE',  ( 0.0000000000000000000, 1.000000000000000000, 0.0000000000000000000 ) ) ;
#352 = CARTESIAN_POINT ( 'NONE',  ( -151.0000000000000000, 0.8000000000000000400, 431.0000000000000000 ) ) ;
#353 = DIRECTION ( 'NONE',  ( 0.0000000000000000000, -0.0000000000000000000, -1.000000000000000000 ) ) ;
#354 = DIRECTION ( 'NONE',  ( -0.0000000000000000000, -0.0000000000000000000, -1.000000000000000000 ) ) ;
#355 = CARTESIAN_POINT ( 'NONE',  ( 151.0000000000000000, 0.0000000000000000000, 431.0000000000000000 ) ) ;
#356 = CARTESIAN_POINT ( 'NONE',  ( 151.0000000000000000, -14.00000000000000000, 431.0000000000000000 ) ) ;
#357 = DIRECTION ( 'NONE',  ( -0.0000000000000000000, -0.0000000000000000000, -1.000000000000000000 ) ) ;
#358 = DIRECTION ( 'NONE',  ( 0.0000000000000000000, -1.000000000000000000, 0.0000000000000000000 ) ) ;
#359 = PLANE ( 'NONE',  #287 ) ;
#360 = DIRECTION ( 'NONE',  ( 0.0000000000000000000, -1.000000000000000000, 0.0000000000000000000 ) ) ;
#361 = CARTESIAN_POINT ( 'NONE',  ( 151.0000000000000000, 0.0000000000000000000, 0.0000000000000000000 ) ) ;
#362 = DIRECTION ( 'NONE',  ( 1.000000000000000000, 0.0000000000000000000, 0.0000000000000000000 ) ) ;
#363 = CARTESIAN_POINT ( 'NONE',  ( 151.0000000000000000, 0.0000000000000000000, 431.0000000000000000 ) ) ;
#364 = DIRECTION ( 'NONE',  ( 0.0000000000000000000, 1.000000000000000000, 0.0000000000000000000 ) ) ;
#365 = DIRECTION ( 'NONE',  ( 1.000000000000000000, 0.0000000000000000000, 0.0000000000000000000 ) ) ;
#366 = PLANE ( 'NONE',  #222 ) ;
#367 = CARTESIAN_POINT ( 'NONE',  ( 151.7999999999999800, -14.00000000000000000, 431.0000000000000000 ) ) ;
#368 = DIRECTION ( 'NONE',  ( 0.0000000000000000000, 0.0000000000000000000, 1.000000000000000000 ) ) ;
#369 = DIRECTION ( 'NONE',  ( -0.0000000000000000000, -1.000000000000000000, -0.0000000000000000000 ) ) ;
#370 = CARTESIAN_POINT ( 'NONE',  ( 1.734723475976807100E-015, 0.0000000000000000000, 14.99999999999999300 ) ) ;
#371 = CARTESIAN_POINT ( 'NONE',  ( 1.734723475976807100E-015, -14.00099999999999900, 14.99999999999999300 ) ) ;
#372 = DIRECTION ( 'NONE',  ( -1.000000000000000000, 0.0000000000000000000, 0.0000000000000000000 ) ) ;
#373 = DIRECTION ( 'NONE',  ( -0.0000000000000000000, 0.0000000000000000000, -1.000000000000000000 ) ) ;
#374 = DIRECTION ( 'NONE',  ( 0.0000000000000000000, 0.0000000000000000000, 1.000000000000000000 ) ) ;
#375 = DIRECTION ( 'NONE',  ( -0.0000000000000000000, -1.000000000000000000, -0.0000000000000000000 ) ) ;
#376 = CARTESIAN_POINT ( 'NONE',  ( 0.0000000000000000000, 0.0000000000000000000, 431.0000000000000000 ) ) ;
#377 = CARTESIAN_POINT ( 'NONE',  ( 0.0000000000000000000, 0.0000000000000000000, 416.0000000000000600 ) ) ;
#378 = DIRECTION ( 'NONE',  ( 0.0000000000000000000, 0.0000000000000000000, 1.000000000000000000 ) ) ;
#379 = CARTESIAN_POINT ( 'NONE',  ( -151.0000000000000000, 0.0000000000000000000, 431.0000000000000000 ) ) ;
#380 = PLANE ( 'NONE',  #225 ) ;
#381 = DIRECTION ( 'NONE',  ( -0.0000000000000000000, 1.000000000000000000, -0.0000000000000000000 ) ) ;
#382 = DIRECTION ( 'NONE',  ( -0.0000000000000000000, -0.0000000000000000000, -1.000000000000000000 ) ) ;
#383 = DIRECTION ( 'NONE',  ( -0.0000000000000000000, 1.000000000000000000, -0.0000000000000000000 ) ) ;
#384 = CARTESIAN_POINT ( 'NONE',  ( -151.0000000000000000, 0.0000000000000000000, 0.0000000000000000000 ) ) ;
#385 = CARTESIAN_POINT ( 'NONE',  ( -151.7999999999999800, 0.8000000000000000400, 0.0000000000000000000 ) ) ;
#386 = CARTESIAN_POINT ( 'NONE',  ( -151.0000000000000000, 0.0000000000000000000, 431.0000000000000000 ) ) ;
#387 = CARTESIAN_POINT ( 'NONE',  ( 151.0000000000000000, 0.0000000000000000000, 431.0000000000000000 ) ) ;
#388 = DIRECTION ( 'NONE',  ( -0.0000000000000000000, 1.000000000000000000, -0.0000000000000000000 ) ) ;
#389 = CARTESIAN_POINT ( 'NONE',  ( 151.7999999999999800, -14.00000000000000000, 0.0000000000000000000 ) ) ;
#390 = DIRECTION ( 'NONE',  ( 0.0000000000000000000, -1.000000000000000000, 0.0000000000000000000 ) ) ;
#391 = CARTESIAN_POINT ( 'NONE',  ( 151.0000000000000000, 0.0000000000000000000, 431.0000000000000000 ) ) ;
#392 = CARTESIAN_POINT ( 'NONE',  ( -151.0000000000000000, 0.0000000000000000000, 0.0000000000000000000 ) ) ;
#393 = DIRECTION ( 'NONE',  ( -1.000000000000000000, 0.0000000000000000000, 0.0000000000000000000 ) ) ;
#394 = DIRECTION ( 'NONE',  ( -0.0000000000000000000, -0.0000000000000000000, -1.000000000000000000 ) ) ;
#395 = CARTESIAN_POINT ( 'NONE',  ( -151.0000000000000000, 0.0000000000000000000, 431.0000000000000000 ) ) ;
#396 = CARTESIAN_POINT ( 'NONE',  ( -151.0000000000000000, 0.0000000000000000000, 431.0000000000000000 ) ) ;
#397 = CARTESIAN_POINT ( 'NONE',  ( -151.0000000000000000, -14.00000000000000000, 431.0000000000000000 ) ) ;
#398 = DIRECTION ( 'NONE',  ( -1.000000000000000000, 0.0000000000000000000, 0.0000000000000000000 ) ) ;
#399 = CARTESIAN_POINT ( 'NONE',  ( 151.7999999999999800, 0.8000000000000000400, 431.0000000000000000 ) ) ;
#400 = CARTESIAN_POINT ( 'NONE',  ( 151.7999999999999800, -14.00000000000000000, 0.0000000000000000000 ) ) ;
#401 = DIRECTION ( 'NONE',  ( -1.000000000000000000, 0.0000000000000000000, 0.0000000000000000000 ) ) ;
#402 = CARTESIAN_POINT ( 'NONE',  ( -151.0000000000000000, -14.00000000000000000, 0.0000000000000000000 ) ) ;
#403 = CARTESIAN_POINT ( 'NONE',  ( 151.0000000000000000, -14.00000000000000000, 431.0000000000000000 ) ) ;
#404 = DIRECTION ( 'NONE',  ( 0.0000000000000000000, 1.000000000000000000, 0.0000000000000000000 ) ) ;
#405 = DIRECTION ( 'NONE',  ( -0.0000000000000000000, -0.0000000000000000000, -1.000000000000000000 ) ) ;
#406 = CARTESIAN_POINT ( 'NONE',  ( -151.0000000000000000, -14.00000000000000000, 0.0000000000000000000 ) ) ;
#407 = CARTESIAN_POINT ( 'NONE',  ( -151.0000000000000000, 0.0000000000000000000, 0.0000000000000000000 ) ) ;
#408 = CARTESIAN_POINT ( 'NONE',  ( -151.7999999999999800, -14.00000000000000000, 431.0000000000000000 ) ) ;
#409 = DIRECTION ( 'NONE',  ( 0.0000000000000000000, 1.000000000000000000, 0.0000000000000000000 ) ) ;
#410 = CARTESIAN_POINT ( 'NONE',  ( -151.7999999999999800, -14.00000000000000000, 0.0000000000000000000 ) ) ;
#411 = CARTESIAN_POINT ( 'NONE',  ( -151.7999999999999800, 0.0000000000000000000, 0.0000000000000000000 ) ) ;
#412 = CARTESIAN_POINT ( 'NONE',  ( -151.7999999999999800, 0.8000000000000000400, 431.0000000000000000 ) ) ;
#413 = DIRECTION ( 'NONE',  ( 1.000000000000000000, 0.0000000000000000000, 0.0000000000000000000 ) ) ;
#414 = DIRECTION ( 'NONE',  ( -0.0000000000000000000, -0.0000000000000000000, -1.000000000000000000 ) ) ;
#415 = CARTESIAN_POINT ( 'NONE',  ( -151.0000000000000000, -14.00000000000000000, 431.0000000000000000 ) ) ;
#416 = CARTESIAN_POINT ( 'NONE',  ( -151.0000000000000000, 0.8000000000000000400, 431.0000000000000000 ) ) ;
#417 = DIRECTION ( 'NONE',  ( 1.000000000000000000, 0.0000000000000000000, 0.0000000000000000000 ) ) ;
#418 = DIRECTION ( 'NONE',  ( 0.0000000000000000000, 0.0000000000000000000, 1.000000000000000000 ) ) ;
#419 = DIRECTION ( 'NONE',  ( 0.0000000000000000000, 1.000000000000000000, 0.0000000000000000000 ) ) ;
#420 = CARTESIAN_POINT ( 'NONE',  ( 151.0000000000000000, -14.00000000000000000, 0.0000000000000000000 ) ) ;
#421 = CARTESIAN_POINT ( 'NONE',  ( 1.734723475976807100E-015, 0.8000000000000000400, 14.99999999999999300 ) ) ;
#422 = CARTESIAN_POINT ( 'NONE',  ( 151.7999999999999800, -14.00000000000000000, 431.0000000000000000 ) ) ;
#423 = DIRECTION ( 'NONE',  ( 0.0000000000000000000, 0.0000000000000000000, -1.000000000000000000 ) ) ;
#424 = DIRECTION ( 'NONE',  ( -0.0000000000000000000, 1.000000000000000000, -0.0000000000000000000 ) ) ;
#425 = CARTESIAN_POINT ( 'NONE',  ( 0.0000000000000000000, 0.8000000000000000400, 416.0000000000000600 ) ) ;
#426 = CARTESIAN_POINT ( 'NONE',  ( -151.7999999999999800, 0.0000000000000000000, 431.0000000000000000 ) ) ;
#427 = CARTESIAN_POINT ( 'NONE',  ( 151.0000000000000000, 0.0000000000000000000, 0.0000000000000000000 ) ) ;
#428 = CARTESIAN_POINT ( 'NONE',  ( -151.7999999999999800, 0.8000000000000000400, 431.0000000000000000 ) ) ;
#429 = DIRECTION ( 'NONE',  ( -0.0000000000000000000, -1.000000000000000000, 0.0000000000000000000 ) ) ;
#430 = CARTESIAN_POINT ( 'NONE',  ( -151.0000000000000000, 0.8000000000000000400, 0.0000000000000000000 ) ) ;
#431 = DIRECTION ( 'NONE',  ( -0.0000000000000000000, -0.0000000000000000000, -1.000000000000000000 ) ) ;
#432 = DIRECTION ( 'NONE',  ( -0.0000000000000000000, -1.000000000000000000, 0.0000000000000000000 ) ) ;
#433 = CARTESIAN_POINT ( 'NONE',  ( 151.7999999999999800, 0.0000000000000000000, 431.0000000000000000 ) ) ;
#434 = CARTESIAN_POINT ( 'NONE',  ( 151.7999999999999800, 0.8000000000000000400, 0.0000000000000000000 ) ) ;
#435 = DIRECTION ( 'NONE',  ( -0.0000000000000000000, -0.0000000000000000000, -1.000000000000000000 ) ) ;
#436 = CARTESIAN_POINT ( 'NONE',  ( -151.0000000000000000, -14.00000000000000000, 431.0000000000000000 ) ) ;
#437 = CARTESIAN_POINT ( 'NONE',  ( -151.7999999999999800, -14.00000000000000000, 431.0000000000000000 ) ) ;
ENDSEC;
END-ISO-10303-21;
