ISO-10303-21;
HEADER;
FILE_DESCRIPTION(('Creo Elements/Direct Modeling STEP Export'),'2;1');
FILE_NAME('SFR.4-PT.stp','2014-04-01T15:40:31',(''),(''),
'Creo Elements/Direct Modeling STEP processor for AP214 (Solid Model)',
'Creo Elements/Direct Modeling 18.0B  02-Dec-2011 (C) Parametric Technol
ogy GmbH','');
FILE_SCHEMA(('AUTOMOTIVE_DESIGN { 1 0 10303 214 1 1 1 1 }'));
ENDSEC;
DATA;
#10=CARTESIAN_POINT('',(80.4339331988132,47.864156966012,
0.0999999999999986));
#20=DIRECTION('',(0.,0.,1.));
#30=DIRECTION('',(1.,0.,0.));
#40=AXIS2_PLACEMENT_3D('',#10,#20,#30);
#50=PLANE('',#40);
#60=CARTESIAN_POINT('',(103.258881314261,68.614156966012,
0.0999999999999986));
#70=DIRECTION('',(0.,0.,1.));
#80=DIRECTION('',(1.,0.,0.));
#90=AXIS2_PLACEMENT_3D('',#60,#70,#80);
#100=CIRCLE('',#90,0.5);
#110=CARTESIAN_POINT('',(103.728727624654,68.7851670376748,
0.0999999999999986));
#120=VERTEX_POINT('',#110);
#130=CARTESIAN_POINT('',(103.258881314261,69.114156966012,
0.0999999999999986));
#140=VERTEX_POINT('',#130);
#150=EDGE_CURVE('',#120,#140,#100,.T.);
#160=ORIENTED_EDGE('',*,*,#150,.F.);
#170=CARTESIAN_POINT('',(103.258881314261,69.114156966012,
0.0999999999999986));
#180=DIRECTION('',(-1.,0.,0.));
#190=VECTOR('',#180,1.);
#200=LINE('',#170,#190);
#210=CARTESIAN_POINT('',(57.6089850833657,69.114156966012,
0.0999999999999986));
#220=VERTEX_POINT('',#210);
#230=EDGE_CURVE('',#140,#220,#200,.T.);
#240=ORIENTED_EDGE('',*,*,#230,.F.);
#250=CARTESIAN_POINT('',(57.6089850833657,68.114156966012,
0.0999999999999986));
#260=DIRECTION('',(0.,0.,1.));
#270=DIRECTION('',(1.,0.,0.));
#280=AXIS2_PLACEMENT_3D('',#250,#260,#270);
#290=CIRCLE('',#280,1.);
#300=CARTESIAN_POINT('',(56.6089850833657,68.114156966012,
0.0999999999999986));
#310=VERTEX_POINT('',#300);
#320=EDGE_CURVE('',#220,#310,#290,.T.);
#330=ORIENTED_EDGE('',*,*,#320,.F.);
#340=CARTESIAN_POINT('',(56.6089850833657,41.114156966012,
0.0999999999999986));
#350=DIRECTION('',(0.,1.,0.));
#360=VECTOR('',#350,1.);
#370=LINE('',#340,#360);
#380=CARTESIAN_POINT('',(56.6089850833657,36.614156966012,
0.0999999999999986));
#390=VERTEX_POINT('',#380);
#400=EDGE_CURVE('',#390,#310,#370,.T.);
#410=ORIENTED_EDGE('',*,*,#400,.T.);
#420=CARTESIAN_POINT('',(58.1089850833657,36.614156966012,
0.0999999999999986));
#430=DIRECTION('',(0.,0.,1.));
#440=DIRECTION('',(1.,0.,0.));
#450=AXIS2_PLACEMENT_3D('',#420,#430,#440);
#460=CIRCLE('',#450,1.5);
#470=CARTESIAN_POINT('',(58.1089850833657,35.114156966012,
0.0999999999999986));
#480=VERTEX_POINT('',#470);
#490=EDGE_CURVE('',#390,#480,#460,.T.);
#500=ORIENTED_EDGE('',*,*,#490,.F.);
#510=CARTESIAN_POINT('',(81.6089850833657,35.114156966012,
0.0999999999999986));
#520=DIRECTION('',(1.,0.,0.));
#530=VECTOR('',#520,1.);
#540=LINE('',#510,#530);
#550=CARTESIAN_POINT('',(107.108985083366,35.114156966012,
0.0999999999999986));
#560=VERTEX_POINT('',#550);
#570=EDGE_CURVE('',#480,#560,#540,.T.);
#580=ORIENTED_EDGE('',*,*,#570,.F.);
#590=CARTESIAN_POINT('',(107.108985083366,36.614156966012,
0.0999999999999986));
#600=DIRECTION('',(0.,0.,1.));
#610=DIRECTION('',(1.,0.,0.));
#620=AXIS2_PLACEMENT_3D('',#590,#600,#610);
#630=CIRCLE('',#620,1.5);
#640=CARTESIAN_POINT('',(108.608985083366,36.614156966012,
0.0999999999999986));
#650=VERTEX_POINT('',#640);
#660=EDGE_CURVE('',#560,#650,#630,.T.);
#670=ORIENTED_EDGE('',*,*,#660,.F.);
#680=CARTESIAN_POINT('',(108.608985083366,36.614156966012,
0.0999999999999986));
#690=DIRECTION('',(0.,1.,0.));
#700=VECTOR('',#690,1.);
#710=LINE('',#680,#700);
#720=CARTESIAN_POINT('',(108.608985083366,55.3767698687373,
0.0999999999999986));
#730=VERTEX_POINT('',#720);
#740=EDGE_CURVE('',#650,#730,#710,.T.);
#750=ORIENTED_EDGE('',*,*,#740,.F.);
#760=CARTESIAN_POINT('',(105.045469685334,65.1674479587113,
0.0999999999999986));
#770=DIRECTION('',(-0.342020143325609,0.93969262078593,0.));
#780=VECTOR('',#770,1.);
#790=LINE('',#760,#780);
#800=EDGE_CURVE('',#730,#120,#790,.T.);
#810=ORIENTED_EDGE('',*,*,#800,.F.);
#820=EDGE_LOOP('',(#810,#750,#670,#580,#500,#410,#330,#240,#160));
#830=FACE_OUTER_BOUND('',#820,.T.);
#840=ADVANCED_FACE('',(#830),#50,.F.);
#850=CARTESIAN_POINT('',(80.4339331988132,47.864156966012,1.6));
#860=DIRECTION('',(0.,0.,1.));
#870=DIRECTION('',(1.,0.,0.));
#880=AXIS2_PLACEMENT_3D('',#850,#860,#870);
#890=PLANE('',#880);
#900=CARTESIAN_POINT('',(105.045469685334,65.1674479587113,1.6));
#910=DIRECTION('',(-0.342020143325609,0.93969262078593,0.));
#920=VECTOR('',#910,1.);
#930=LINE('',#900,#920);
#940=CARTESIAN_POINT('',(108.608985083366,55.3767698687373,1.6));
#950=VERTEX_POINT('',#940);
#960=CARTESIAN_POINT('',(103.728727624654,68.7851670376748,1.6));
#970=VERTEX_POINT('',#960);
#980=EDGE_CURVE('',#950,#970,#930,.T.);
#990=ORIENTED_EDGE('',*,*,#980,.T.);
#1000=CARTESIAN_POINT('',(108.608985083366,36.614156966012,1.6));
#1010=DIRECTION('',(0.,1.,0.));
#1020=VECTOR('',#1010,1.);
#1030=LINE('',#1000,#1020);
#1040=CARTESIAN_POINT('',(108.608985083366,36.614156966012,1.6));
#1050=VERTEX_POINT('',#1040);
#1060=EDGE_CURVE('',#1050,#950,#1030,.T.);
#1070=ORIENTED_EDGE('',*,*,#1060,.T.);
#1080=CARTESIAN_POINT('',(107.108985083366,36.614156966012,1.6));
#1090=DIRECTION('',(0.,0.,1.));
#1100=DIRECTION('',(1.,0.,0.));
#1110=AXIS2_PLACEMENT_3D('',#1080,#1090,#1100);
#1120=CIRCLE('',#1110,1.5);
#1130=CARTESIAN_POINT('',(107.108985083366,35.114156966012,1.6));
#1140=VERTEX_POINT('',#1130);
#1150=EDGE_CURVE('',#1140,#1050,#1120,.T.);
#1160=ORIENTED_EDGE('',*,*,#1150,.T.);
#1170=CARTESIAN_POINT('',(81.6089850833657,35.114156966012,1.6));
#1180=DIRECTION('',(1.,0.,0.));
#1190=VECTOR('',#1180,1.);
#1200=LINE('',#1170,#1190);
#1210=CARTESIAN_POINT('',(58.1089850833657,35.114156966012,1.6));
#1220=VERTEX_POINT('',#1210);
#1230=EDGE_CURVE('',#1220,#1140,#1200,.T.);
#1240=ORIENTED_EDGE('',*,*,#1230,.T.);
#1250=CARTESIAN_POINT('',(58.1089850833657,36.614156966012,1.6));
#1260=DIRECTION('',(0.,0.,1.));
#1270=DIRECTION('',(1.,0.,0.));
#1280=AXIS2_PLACEMENT_3D('',#1250,#1260,#1270);
#1290=CIRCLE('',#1280,1.5);
#1300=CARTESIAN_POINT('',(56.6089850833657,36.614156966012,1.6));
#1310=VERTEX_POINT('',#1300);
#1320=EDGE_CURVE('',#1310,#1220,#1290,.T.);
#1330=ORIENTED_EDGE('',*,*,#1320,.T.);
#1340=CARTESIAN_POINT('',(56.6089850833657,41.114156966012,1.6));
#1350=DIRECTION('',(0.,1.,0.));
#1360=VECTOR('',#1350,1.);
#1370=LINE('',#1340,#1360);
#1380=CARTESIAN_POINT('',(56.6089850833657,68.114156966012,1.6));
#1390=VERTEX_POINT('',#1380);
#1400=EDGE_CURVE('',#1310,#1390,#1370,.T.);
#1410=ORIENTED_EDGE('',*,*,#1400,.F.);
#1420=CARTESIAN_POINT('',(57.6089850833657,68.114156966012,1.6));
#1430=DIRECTION('',(0.,0.,1.));
#1440=DIRECTION('',(1.,0.,0.));
#1450=AXIS2_PLACEMENT_3D('',#1420,#1430,#1440);
#1460=CIRCLE('',#1450,1.);
#1470=CARTESIAN_POINT('',(57.6089850833657,69.114156966012,1.6));
#1480=VERTEX_POINT('',#1470);
#1490=EDGE_CURVE('',#1480,#1390,#1460,.T.);
#1500=ORIENTED_EDGE('',*,*,#1490,.T.);
#1510=CARTESIAN_POINT('',(103.258881314261,69.114156966012,1.6));
#1520=DIRECTION('',(-1.,0.,0.));
#1530=VECTOR('',#1520,1.);
#1540=LINE('',#1510,#1530);
#1550=CARTESIAN_POINT('',(103.258881314261,69.114156966012,1.6));
#1560=VERTEX_POINT('',#1550);
#1570=EDGE_CURVE('',#1560,#1480,#1540,.T.);
#1580=ORIENTED_EDGE('',*,*,#1570,.T.);
#1590=CARTESIAN_POINT('',(103.258881314261,68.614156966012,1.6));
#1600=DIRECTION('',(0.,0.,1.));
#1610=DIRECTION('',(1.,0.,0.));
#1620=AXIS2_PLACEMENT_3D('',#1590,#1600,#1610);
#1630=CIRCLE('',#1620,0.5);
#1640=EDGE_CURVE('',#970,#1560,#1630,.T.);
#1650=ORIENTED_EDGE('',*,*,#1640,.T.);
#1660=EDGE_LOOP('',(#1650,#1580,#1500,#1410,#1330,#1240,#1160,#1070,#990
));
#1670=FACE_OUTER_BOUND('',#1660,.T.);
#1680=ADVANCED_FACE('',(#1670),#890,.T.);
#1690=CARTESIAN_POINT('',(103.258881314261,68.614156966012,
0.0999999999999986));
#1700=DIRECTION('',(0.,0.,1.));
#1710=DIRECTION('',(1.,0.,0.));
#1720=AXIS2_PLACEMENT_3D('',#1690,#1700,#1710);
#1730=CYLINDRICAL_SURFACE('',#1720,0.5);
#1740=CARTESIAN_POINT('',(103.728727624654,68.7851670376748,
0.0999999999999986));
#1750=DIRECTION('',(0.,0.,1.));
#1760=VECTOR('',#1750,1.);
#1770=LINE('',#1740,#1760);
#1780=EDGE_CURVE('',#120,#970,#1770,.T.);
#1790=ORIENTED_EDGE('',*,*,#1780,.F.);
#1800=ORIENTED_EDGE('',*,*,#1640,.F.);
#1810=CARTESIAN_POINT('',(103.258881314261,69.114156966012,
0.0999999999999986));
#1820=DIRECTION('',(0.,0.,1.));
#1830=VECTOR('',#1820,1.);
#1840=LINE('',#1810,#1830);
#1850=EDGE_CURVE('',#140,#1560,#1840,.T.);
#1860=ORIENTED_EDGE('',*,*,#1850,.T.);
#1870=ORIENTED_EDGE('',*,*,#150,.T.);
#1880=EDGE_LOOP('',(#1870,#1860,#1800,#1790));
#1890=FACE_OUTER_BOUND('',#1880,.T.);
#1900=ADVANCED_FACE('',(#1890),#1730,.T.);
#1910=CARTESIAN_POINT('',(57.6089850833657,69.114156966012,
0.0999999999999986));
#1920=DIRECTION('',(-0.,1.,0.));
#1930=DIRECTION('',(1.,0.,0.));
#1940=AXIS2_PLACEMENT_3D('',#1910,#1920,#1930);
#1950=PLANE('',#1940);
#1960=ORIENTED_EDGE('',*,*,#1850,.F.);
#1970=ORIENTED_EDGE('',*,*,#1570,.F.);
#1980=CARTESIAN_POINT('',(57.6089850833657,69.114156966012,
0.0999999999999986));
#1990=DIRECTION('',(0.,0.,1.));
#2000=VECTOR('',#1990,1.);
#2010=LINE('',#1980,#2000);
#2020=EDGE_CURVE('',#220,#1480,#2010,.T.);
#2030=ORIENTED_EDGE('',*,*,#2020,.T.);
#2040=ORIENTED_EDGE('',*,*,#230,.T.);
#2050=EDGE_LOOP('',(#2040,#2030,#1970,#1960));
#2060=FACE_OUTER_BOUND('',#2050,.T.);
#2070=ADVANCED_FACE('',(#2060),#1950,.T.);
#2080=CARTESIAN_POINT('',(57.6089850833657,68.114156966012,
0.0999999999999986));
#2090=DIRECTION('',(0.,0.,1.));
#2100=DIRECTION('',(1.,0.,0.));
#2110=AXIS2_PLACEMENT_3D('',#2080,#2090,#2100);
#2120=CYLINDRICAL_SURFACE('',#2110,1.);
#2130=ORIENTED_EDGE('',*,*,#2020,.F.);
#2140=ORIENTED_EDGE('',*,*,#1490,.F.);
#2150=CARTESIAN_POINT('',(56.6089850833657,68.114156966012,
0.0999999999999986));
#2160=DIRECTION('',(0.,0.,1.));
#2170=VECTOR('',#2160,1.);
#2180=LINE('',#2150,#2170);
#2190=EDGE_CURVE('',#310,#1390,#2180,.T.);
#2200=ORIENTED_EDGE('',*,*,#2190,.T.);
#2210=ORIENTED_EDGE('',*,*,#320,.T.);
#2220=EDGE_LOOP('',(#2210,#2200,#2140,#2130));
#2230=FACE_OUTER_BOUND('',#2220,.T.);
#2240=ADVANCED_FACE('',(#2230),#2120,.T.);
#2250=CARTESIAN_POINT('',(56.6089850833657,36.614156966012,
0.0999999999999986));
#2260=DIRECTION('',(-1.,0.,0.));
#2270=DIRECTION('',(0.,1.,0.));
#2280=AXIS2_PLACEMENT_3D('',#2250,#2260,#2270);
#2290=PLANE('',#2280);
#2300=ORIENTED_EDGE('',*,*,#2190,.F.);
#2310=ORIENTED_EDGE('',*,*,#1400,.T.);
#2320=CARTESIAN_POINT('',(56.6089850833657,36.614156966012,
0.0999999999999986));
#2330=DIRECTION('',(0.,0.,1.));
#2340=VECTOR('',#2330,1.);
#2350=LINE('',#2320,#2340);
#2360=EDGE_CURVE('',#390,#1310,#2350,.T.);
#2370=ORIENTED_EDGE('',*,*,#2360,.T.);
#2380=ORIENTED_EDGE('',*,*,#400,.F.);
#2390=EDGE_LOOP('',(#2380,#2370,#2310,#2300));
#2400=FACE_OUTER_BOUND('',#2390,.T.);
#2410=ADVANCED_FACE('',(#2400),#2290,.T.);
#2420=CARTESIAN_POINT('',(58.1089850833657,36.614156966012,
0.0999999999999986));
#2430=DIRECTION('',(0.,0.,1.));
#2440=DIRECTION('',(1.,0.,0.));
#2450=AXIS2_PLACEMENT_3D('',#2420,#2430,#2440);
#2460=CYLINDRICAL_SURFACE('',#2450,1.5);
#2470=ORIENTED_EDGE('',*,*,#2360,.F.);
#2480=ORIENTED_EDGE('',*,*,#1320,.F.);
#2490=CARTESIAN_POINT('',(58.1089850833657,35.114156966012,
0.0999999999999986));
#2500=DIRECTION('',(0.,0.,1.));
#2510=VECTOR('',#2500,1.);
#2520=LINE('',#2490,#2510);
#2530=EDGE_CURVE('',#480,#1220,#2520,.T.);
#2540=ORIENTED_EDGE('',*,*,#2530,.T.);
#2550=ORIENTED_EDGE('',*,*,#490,.T.);
#2560=EDGE_LOOP('',(#2550,#2540,#2480,#2470));
#2570=FACE_OUTER_BOUND('',#2560,.T.);
#2580=ADVANCED_FACE('',(#2570),#2460,.T.);
#2590=CARTESIAN_POINT('',(107.108985083366,35.114156966012,
0.0999999999999986));
#2600=DIRECTION('',(-0.,-1.,-0.));
#2610=DIRECTION('',(-1.,0.,0.));
#2620=AXIS2_PLACEMENT_3D('',#2590,#2600,#2610);
#2630=PLANE('',#2620);
#2640=ORIENTED_EDGE('',*,*,#2530,.F.);
#2650=ORIENTED_EDGE('',*,*,#1230,.F.);
#2660=CARTESIAN_POINT('',(107.108985083366,35.114156966012,
0.0999999999999986));
#2670=DIRECTION('',(0.,0.,1.));
#2680=VECTOR('',#2670,1.);
#2690=LINE('',#2660,#2680);
#2700=EDGE_CURVE('',#560,#1140,#2690,.T.);
#2710=ORIENTED_EDGE('',*,*,#2700,.T.);
#2720=ORIENTED_EDGE('',*,*,#570,.T.);
#2730=EDGE_LOOP('',(#2720,#2710,#2650,#2640));
#2740=FACE_OUTER_BOUND('',#2730,.T.);
#2750=ADVANCED_FACE('',(#2740),#2630,.T.);
#2760=CARTESIAN_POINT('',(107.108985083366,36.614156966012,
0.0999999999999986));
#2770=DIRECTION('',(0.,0.,1.));
#2780=DIRECTION('',(1.,0.,0.));
#2790=AXIS2_PLACEMENT_3D('',#2760,#2770,#2780);
#2800=CYLINDRICAL_SURFACE('',#2790,1.5);
#2810=ORIENTED_EDGE('',*,*,#2700,.F.);
#2820=ORIENTED_EDGE('',*,*,#1150,.F.);
#2830=CARTESIAN_POINT('',(108.608985083366,36.614156966012,
0.0999999999999986));
#2840=DIRECTION('',(0.,0.,1.));
#2850=VECTOR('',#2840,1.);
#2860=LINE('',#2830,#2850);
#2870=EDGE_CURVE('',#650,#1050,#2860,.T.);
#2880=ORIENTED_EDGE('',*,*,#2870,.T.);
#2890=ORIENTED_EDGE('',*,*,#660,.T.);
#2900=EDGE_LOOP('',(#2890,#2880,#2820,#2810));
#2910=FACE_OUTER_BOUND('',#2900,.T.);
#2920=ADVANCED_FACE('',(#2910),#2800,.T.);
#2930=CARTESIAN_POINT('',(108.608985083366,55.3767698687373,
0.0999999999999986));
#2940=DIRECTION('',(1.,0.,0.));
#2950=DIRECTION('',(0.,-1.,0.));
#2960=AXIS2_PLACEMENT_3D('',#2930,#2940,#2950);
#2970=PLANE('',#2960);
#2980=ORIENTED_EDGE('',*,*,#2870,.F.);
#2990=ORIENTED_EDGE('',*,*,#1060,.F.);
#3000=CARTESIAN_POINT('',(108.608985083366,55.3767698687373,
0.0999999999999986));
#3010=DIRECTION('',(0.,0.,1.));
#3020=VECTOR('',#3010,1.);
#3030=LINE('',#3000,#3020);
#3040=EDGE_CURVE('',#730,#950,#3030,.T.);
#3050=ORIENTED_EDGE('',*,*,#3040,.T.);
#3060=ORIENTED_EDGE('',*,*,#740,.T.);
#3070=EDGE_LOOP('',(#3060,#3050,#2990,#2980));
#3080=FACE_OUTER_BOUND('',#3070,.T.);
#3090=ADVANCED_FACE('',(#3080),#2970,.T.);
#3100=CARTESIAN_POINT('',(103.728727624654,68.7851670376748,
0.0999999999999986));
#3110=DIRECTION('',(0.93969262078593,0.342020143325609,0.));
#3120=DIRECTION('',(0.342020143325609,-0.93969262078593,0.));
#3130=AXIS2_PLACEMENT_3D('',#3100,#3110,#3120);
#3140=PLANE('',#3130);
#3150=ORIENTED_EDGE('',*,*,#3040,.F.);
#3160=ORIENTED_EDGE('',*,*,#980,.F.);
#3170=ORIENTED_EDGE('',*,*,#1780,.T.);
#3180=ORIENTED_EDGE('',*,*,#800,.T.);
#3190=EDGE_LOOP('',(#3180,#3170,#3160,#3150));
#3200=FACE_OUTER_BOUND('',#3190,.T.);
#3210=ADVANCED_FACE('',(#3200),#3140,.T.);
#3220=CLOSED_SHELL('',(#1900,#2070,#2240,#2410,#2580,#2750,#2920,#3090,
#3210,#1680,#840));
#3230=MANIFOLD_SOLID_BREP('',#3220);
#3240=CARTESIAN_POINT('',(0.,0.,0.));
#3250=DIRECTION('',(0.,0.,1.));
#3260=DIRECTION('',(1.,0.,0.));
#3270=AXIS2_PLACEMENT_3D('',#3240,#3250,#3260);
#3280=APPLICATION_CONTEXT(' ');
#3290=APPLICATION_PROTOCOL_DEFINITION(' ','automotive_design',1998,#3280
);
#3300=PRODUCT_CONTEXT('',#3280,'mechanical');
#3310=PRODUCT_DEFINITION_CONTEXT('part definition',#3280,'design');
#3320=PRODUCT('SFR.4-PT','SFR.4-PT','',(#3300));
#3330=PRODUCT_RELATED_PRODUCT_CATEGORY('part',' ',(#3320));
#3340=PRODUCT_DEFINITION_FORMATION_WITH_SPECIFIED_SOURCE('','',#3320,
.BOUGHT.);
#3350=PRODUCT_DEFINITION('',' ',#3340,#3310);
#3360=PRODUCT_DEFINITION_SHAPE('','',#3350);
#3370=DIMENSIONAL_EXPONENTS(1.,0.,0.,0.,0.,0.,0.);
#3380=DIMENSIONAL_EXPONENTS(0.,0.,0.,0.,0.,0.,0.);
#3390=DIMENSIONAL_EXPONENTS(0.,0.,0.,0.,0.,0.,0.);
#3400=(LENGTH_UNIT() NAMED_UNIT(*) SI_UNIT(.MILLI.,.METRE.));
#3410=(NAMED_UNIT(*) PLANE_ANGLE_UNIT() SI_UNIT($,.RADIAN.));
#3420=(NAMED_UNIT(*) SI_UNIT($,.STERADIAN.) SOLID_ANGLE_UNIT());
#3430=(GEOMETRIC_REPRESENTATION_CONTEXT(3) 
GLOBAL_UNCERTAINTY_ASSIGNED_CONTEXT((#3440)) 
GLOBAL_UNIT_ASSIGNED_CONTEXT((#3400,#3410,#3420)) REPRESENTATION_CONTEXT
('',''));
#3440=UNCERTAINTY_MEASURE_WITH_UNIT(LENGTH_MEASURE(1.E-6),#3400,
'distance_accuracy_value','maximum gap value');
#3450=ADVANCED_BREP_SHAPE_REPRESENTATION('',(#3270,#3230),#3430);
#3460=SHAPE_DEFINITION_REPRESENTATION(#3360,#3450);
#3470=COLOUR_RGB('',1.,0.878431439399719,0.701960802078247);
#3480=FILL_AREA_STYLE_COLOUR('',#3470);
#3490=FILL_AREA_STYLE('',(#3480));
#3500=SURFACE_STYLE_FILL_AREA(#3490);
#3510=SURFACE_SIDE_STYLE('',(#3500));
#3520=SURFACE_STYLE_USAGE(.BOTH.,#3510);
#3530=PRESENTATION_STYLE_ASSIGNMENT((#3520));
#3540=STYLED_ITEM('',(#3530),#3230);
#3550=DRAUGHTING_MODEL('',(#3540),#3430);
ENDSEC;
END-ISO-10303-21;
