ISO-10303-21;
HEADER;
FILE_DESCRIPTION (( 'STEP AP203' ),
    '1' );
FILE_NAME ('Êðûøêà íà îòâåòâèòåëü Ò-îáðàçíûé âåðòèêàëüíûé áîêîâîé TDS_38324.STEP',
    '2012-11-09T08:44:36',
    ( 'Àñååâ' ),
    ( '' ),
    'SwSTEP 2.0',
    'SolidWorks 2012',
    '' );
FILE_SCHEMA (( 'CONFIG_CONTROL_DESIGN' ));
ENDSEC;

DATA;
#1 = CARTESIAN_POINT ( 'NONE',  ( 101.0000000000000000, -14.00000000000000000, 460.0000000000000000 ) ) ;
#2 = DIRECTION ( 'NONE',  ( -1.000000000000000000, 0.0000000000000000000, 0.0000000000000000000 ) ) ;
#3 = CARTESIAN_POINT ( 'NONE',  ( 101.8000000000000000, -14.00000000000000000, 460.0000000000000000 ) ) ;
#4 = DIRECTION ( 'NONE',  ( -0.0000000000000000000, 0.0000000000000000000, -1.000000000000000000 ) ) ;
#5 = CARTESIAN_POINT ( 'NONE',  ( -101.8000000000000000, 0.8000000000000000400, 0.0000000000000000000 ) ) ;
#6 = DIRECTION ( 'NONE',  ( -1.000000000000000000, 0.0000000000000000000, 0.0000000000000000000 ) ) ;
#7 = DIRECTION ( 'NONE',  ( -0.0000000000000000000, -1.000000000000000000, 0.0000000000000000000 ) ) ;
#8 = DIRECTION ( 'NONE',  ( 0.0000000000000000000, 0.0000000000000000000, -1.000000000000000000 ) ) ;
#9 = CARTESIAN_POINT ( 'NONE',  ( 0.0000000000000000000, 0.0000000000000000000, 0.0000000000000000000 ) ) ;
#10 = CARTESIAN_POINT ( 'NONE',  ( 101.0000000000000000, -14.00000000000000000, 0.0000000000000000000 ) ) ;
#11 = CARTESIAN_POINT ( 'NONE',  ( -101.8000000000000000, 0.8000000000000000400, 460.0000000000000000 ) ) ;
#12 = CARTESIAN_POINT ( 'NONE',  ( -101.0000000000000000, 0.8000000000000000400, 0.0000000000000000000 ) ) ;
#13 = CARTESIAN_POINT ( 'NONE',  ( 1.734723475976807100E-015, 0.0000000000000000000, 17.49999999999999600 ) ) ;
#14 = DIRECTION ( 'NONE',  ( 0.0000000000000000000, -1.000000000000000000, 0.0000000000000000000 ) ) ;
#15 = CARTESIAN_POINT ( 'NONE',  ( 101.8000000000000000, -14.00000000000000000, 0.0000000000000000000 ) ) ;
#16 = CARTESIAN_POINT ( 'NONE',  ( -101.0000000000000000, 0.0000000000000000000, 460.0000000000000000 ) ) ;
#17 = CARTESIAN_POINT ( 'NONE',  ( -8.162383766162930900E-016, 0.8000000000000000400, 445.0000000000000600 ) ) ;
#18 = MECHANICAL_CONTEXT ( 'NONE', #40, 'mechanical' ) ;
#19 = DIRECTION ( 'NONE',  ( -1.000000000000000000, 0.0000000000000000000, 0.0000000000000000000 ) ) ;
#20 = DIRECTION ( 'NONE',  ( -0.0000000000000000000, -0.0000000000000000000, -1.000000000000000000 ) ) ;
#21 = CARTESIAN_POINT ( 'NONE',  ( 1.734723475976807100E-015, 0.8000000000000000400, 17.49999999999999600 ) ) ;
#22 = DIRECTION ( 'NONE',  ( -1.000000000000000000, 0.0000000000000000000, 0.0000000000000000000 ) ) ;
#23 = CARTESIAN_POINT ( 'NONE',  ( 101.8000000000000000, 0.0000000000000000000, 460.0000000000000000 ) ) ;
#24 = DIRECTION ( 'NONE',  ( 0.0000000000000000000, 1.000000000000000000, 0.0000000000000000000 ) ) ;
#25 = DIRECTION ( 'NONE',  ( -0.0000000000000000000, -0.0000000000000000000, -1.000000000000000000 ) ) ;
#26 = CARTESIAN_POINT ( 'NONE',  ( 101.8000000000000000, 0.8000000000000000400, 460.0000000000000000 ) ) ;
#27 = CARTESIAN_POINT ( 'NONE',  ( -101.0000000000000000, 0.0000000000000000000, 0.0000000000000000000 ) ) ;
#28 = DIRECTION ( 'NONE',  ( -0.0000000000000000000, -0.0000000000000000000, -1.000000000000000000 ) ) ;
#29 = PLANE ( 'NONE',  #187 ) ;
#30 = CARTESIAN_POINT ( 'NONE',  ( 1.734723475976807100E-015, 0.8000000000000000400, 14.99999999999999300 ) ) ;
#31 = CARTESIAN_POINT ( 'NONE',  ( 101.0000000000000000, -14.00000000000000000, 460.0000000000000000 ) ) ;
#32 = CARTESIAN_POINT ( 'NONE',  ( 101.8000000000000000, -14.00000000000000000, 460.0000000000000000 ) ) ;
#33 = DIRECTION ( 'NONE',  ( 1.000000000000000000, 0.0000000000000000000, 0.0000000000000000000 ) ) ;
#34 = PLANE ( 'NONE',  #168 ) ;
#35 = CARTESIAN_POINT ( 'NONE',  ( -101.0000000000000000, -14.00000000000000000, 460.0000000000000000 ) ) ;
#36 = PLANE ( 'NONE',  #186 ) ;
#37 = CARTESIAN_POINT ( 'NONE',  ( -101.0000000000000000, -14.00000000000000000, 460.0000000000000000 ) ) ;
#38 = DIRECTION ( 'NONE',  ( -0.0000000000000000000, -0.0000000000000000000, -1.000000000000000000 ) ) ;
#39 = DIRECTION ( 'NONE',  ( 0.0000000000000000000, 1.000000000000000000, 0.0000000000000000000 ) ) ;
#40 = APPLICATION_CONTEXT ( 'configuration controlled 3d designs of mechanical parts and assemblies' ) ;
#41 = DIRECTION ( 'NONE',  ( 0.0000000000000000000, 0.0000000000000000000, 1.000000000000000000 ) ) ;
#42 = PLANE ( 'NONE',  #169 ) ;
#43 = DIRECTION ( 'NONE',  ( -0.0000000000000000000, 1.000000000000000000, -0.0000000000000000000 ) ) ;
#44 = CARTESIAN_POINT ( 'NONE',  ( -101.0000000000000000, -14.00000000000000000, 460.0000000000000000 ) ) ;
#45 = CARTESIAN_POINT ( 'NONE',  ( -101.0000000000000000, -14.00000000000000000, 460.0000000000000000 ) ) ;
#46 = DIRECTION ( 'NONE',  ( -1.000000000000000000, 0.0000000000000000000, 0.0000000000000000000 ) ) ;
#47 = CARTESIAN_POINT ( 'NONE',  ( -101.8000000000000000, 0.0000000000000000000, 460.0000000000000000 ) ) ;
#48 = DIRECTION ( 'NONE',  ( 0.0000000000000000000, 0.0000000000000000000, 1.000000000000000000 ) ) ;
#49 = PLANE ( 'NONE',  #193 ) ;
#50 = DIRECTION ( 'NONE',  ( 0.0000000000000000000, 1.000000000000000000, 0.0000000000000000000 ) ) ;
#51 = DIRECTION ( 'NONE',  ( -0.0000000000000000000, -0.0000000000000000000, -1.000000000000000000 ) ) ;
#52 = CARTESIAN_POINT ( 'NONE',  ( -101.8000000000000000, 0.0000000000000000000, 0.0000000000000000000 ) ) ;
#53 = DIRECTION ( 'NONE',  ( 0.0000000000000000000, -1.000000000000000000, 0.0000000000000000000 ) ) ;
#54 = DIRECTION ( 'NONE',  ( 0.0000000000000000000, -0.0000000000000000000, -1.000000000000000000 ) ) ;
#55 = DIRECTION ( 'NONE',  ( -1.000000000000000000, 0.0000000000000000000, 0.0000000000000000000 ) ) ;
#56 = PLANE ( 'NONE',  #192 ) ;
#57 = DIRECTION ( 'NONE',  ( -0.0000000000000000000, 1.000000000000000000, -0.0000000000000000000 ) ) ;
#58 = APPROVAL_ROLE ( '' ) ;
#59 = CARTESIAN_POINT ( 'NONE',  ( -101.0000000000000000, 0.0000000000000000000, 0.0000000000000000000 ) ) ;
#60 = APPROVAL_STATUS ( 'not_yet_approved' ) ;
#61 = DIRECTION ( 'NONE',  ( -1.000000000000000000, 0.0000000000000000000, 0.0000000000000000000 ) ) ;
#62 = DIRECTION ( 'NONE',  ( -0.0000000000000000000, 1.000000000000000000, -0.0000000000000000000 ) ) ;
#63 = DIRECTION ( 'NONE',  ( 0.0000000000000000000, 0.0000000000000000000, 1.000000000000000000 ) ) ;
#64 = CARTESIAN_POINT ( 'NONE',  ( 101.0000000000000000, 0.0000000000000000000, 460.0000000000000000 ) ) ;
#65 = CARTESIAN_POINT ( 'NONE',  ( 101.0000000000000000, 0.0000000000000000000, 460.0000000000000000 ) ) ;
#66 = CARTESIAN_POINT ( 'NONE',  ( -101.0000000000000000, 0.0000000000000000000, 460.0000000000000000 ) ) ;
#67 = CARTESIAN_POINT ( 'NONE',  ( -101.0000000000000000, 0.0000000000000000000, 0.0000000000000000000 ) ) ;
#68 = CARTESIAN_POINT ( 'NONE',  ( -101.0000000000000000, 0.8000000000000000400, 460.0000000000000000 ) ) ;
#69 = CARTESIAN_POINT ( 'NONE',  ( -101.0000000000000000, 0.0000000000000000000, 460.0000000000000000 ) ) ;
#70 = DIRECTION ( 'NONE',  ( 0.0000000000000000000, 1.000000000000000000, 0.0000000000000000000 ) ) ;
#71 = DIRECTION ( 'NONE',  ( -0.0000000000000000000, -0.0000000000000000000, -1.000000000000000000 ) ) ;
#72 = DATE_TIME_ROLE ( 'classification_date' ) ;
#73 = CARTESIAN_POINT ( 'NONE',  ( -101.0000000000000000, 0.0000000000000000000, 460.0000000000000000 ) ) ;
#74 = APPROVAL_ROLE ( '' ) ;
#75 = DIRECTION ( 'NONE',  ( -0.0000000000000000000, 1.000000000000000000, -0.0000000000000000000 ) ) ;
#76 = PERSON_AND_ORGANIZATION_ROLE ( 'classification_officer' ) ;
#77 = SECURITY_CLASSIFICATION_LEVEL ( 'unclassified' ) ;
#78 = PERSON_AND_ORGANIZATION_ROLE ( 'design_supplier' ) ;
#79 = PERSON_AND_ORGANIZATION_ROLE ( 'creator' ) ;
#80 = CARTESIAN_POINT ( 'NONE',  ( -101.0000000000000000, 0.0000000000000000000, 460.0000000000000000 ) ) ;
#81 = PERSON_AND_ORGANIZATION_ROLE ( 'creator' ) ;
#82 = APPROVAL_STATUS ( 'not_yet_approved' ) ;
#83 = CARTESIAN_POINT ( 'NONE',  ( 101.0000000000000000, 0.0000000000000000000, 460.0000000000000000 ) ) ;
#84 = PLANE ( 'NONE',  #190 ) ;
#85 = DATE_TIME_ROLE ( 'creation_date' ) ;
#86 = CARTESIAN_POINT ( 'NONE',  ( 101.0000000000000000, 0.0000000000000000000, 460.0000000000000000 ) ) ;
#87 = CARTESIAN_POINT ( 'NONE',  ( 101.8000000000000000, -14.00000000000000000, 0.0000000000000000000 ) ) ;
#88 = CARTESIAN_POINT ( 'NONE',  ( -8.162383766162930900E-016, 0.0000000000000000000, 445.0000000000000600 ) ) ;
#89 = APPROVAL_ROLE ( '' ) ;
#90 = DIRECTION ( 'NONE',  ( 0.0000000000000000000, 1.000000000000000000, 0.0000000000000000000 ) ) ;
#91 = CARTESIAN_POINT ( 'NONE',  ( 0.0000000000000000000, 0.0000000000000000000, 460.0000000000000000 ) ) ;
#92 = APPROVAL_STATUS ( 'not_yet_approved' ) ;
#93 = APPLICATION_PROTOCOL_DEFINITION ( 'international standard', 'config_control_design', 1994, #94 ) ;
#94 = APPLICATION_CONTEXT ( 'configuration controlled 3d designs of mechanical parts and assemblies' ) ;
#95 = PERSON_AND_ORGANIZATION_ROLE ( 'design_owner' ) ;
#96 = DIRECTION ( 'NONE',  ( -0.0000000000000000000, -1.000000000000000000, 0.0000000000000000000 ) ) ;
#97 = DIRECTION ( 'NONE',  ( 0.0000000000000000000, -0.0000000000000000000, 1.000000000000000000 ) ) ;
#98 = CARTESIAN_POINT ( 'NONE',  ( 101.8000000000000000, 0.0000000000000000000, 0.0000000000000000000 ) ) ;
#99 = DIRECTION ( 'NONE',  ( -0.0000000000000000000, -1.000000000000000000, -0.0000000000000000000 ) ) ;
#100 = CARTESIAN_POINT ( 'NONE',  ( -101.0000000000000000, 0.8000000000000000400, 460.0000000000000000 ) ) ;
#101 =( NAMED_UNIT ( * ) SI_UNIT ( $, .STERADIAN. ) SOLID_ANGLE_UNIT ( ) );
#102 = DIRECTION ( 'NONE',  ( 0.0000000000000000000, 0.0000000000000000000, 1.000000000000000000 ) ) ;
#103 = PLANE ( 'NONE',  #225 ) ;
#104 = CARTESIAN_POINT ( 'NONE',  ( -101.8000000000000000, 0.0000000000000000000, 460.0000000000000000 ) ) ;
#105 = CARTESIAN_POINT ( 'NONE',  ( 101.8000000000000000, 0.0000000000000000000, 460.0000000000000000 ) ) ;
#106 = DIRECTION ( 'NONE',  ( -0.0000000000000000000, 0.0000000000000000000, -1.000000000000000000 ) ) ;
#107 = CARTESIAN_POINT ( 'NONE',  ( 1.734723475976807100E-015, 0.0000000000000000000, 14.99999999999999300 ) ) ;
#108 = DIRECTION ( 'NONE',  ( -1.000000000000000000, 0.0000000000000000000, 0.0000000000000000000 ) ) ;
#109 = DIRECTION ( 'NONE',  ( -0.0000000000000000000, -1.000000000000000000, -0.0000000000000000000 ) ) ;
#110 = DIRECTION ( 'NONE',  ( 0.0000000000000000000, 0.0000000000000000000, 1.000000000000000000 ) ) ;
#111 = PLANE ( 'NONE',  #173 ) ;
#112 = CARTESIAN_POINT ( 'NONE',  ( 0.0000000000000000000, 0.0000000000000000000, 0.0000000000000000000 ) ) ;
#113 = DIRECTION ( 'NONE',  ( 1.000000000000000000, 0.0000000000000000000, 0.0000000000000000000 ) ) ;
#114 = DIRECTION ( 'NONE',  ( 1.000000000000000000, 0.0000000000000000000, -0.0000000000000000000 ) ) ;
#115 = DIRECTION ( 'NONE',  ( -0.0000000000000000000, 0.0000000000000000000, -1.000000000000000000 ) ) ;
#116 = DIRECTION ( 'NONE',  ( 1.000000000000000000, 0.0000000000000000000, 0.0000000000000000000 ) ) ;
#117 = CARTESIAN_POINT ( 'NONE',  ( -101.0000000000000000, -14.00000000000000000, 0.0000000000000000000 ) ) ;
#118 = CARTESIAN_POINT ( 'NONE',  ( 101.8000000000000000, -14.00000000000000000, 460.0000000000000000 ) ) ;
#119 = DIRECTION ( 'NONE',  ( 1.000000000000000000, 0.0000000000000000000, 0.0000000000000000000 ) ) ;
#120 = DIRECTION ( 'NONE',  ( -0.0000000000000000000, -0.0000000000000000000, -1.000000000000000000 ) ) ;
#121 = PLANE ( 'NONE',  #189 ) ;
#122 = CARTESIAN_POINT ( 'NONE',  ( 101.0000000000000000, 0.0000000000000000000, 0.0000000000000000000 ) ) ;
#123 = CARTESIAN_POINT ( 'NONE',  ( -101.8000000000000000, -14.00000000000000000, 460.0000000000000000 ) ) ;
#124 = CARTESIAN_POINT ( 'NONE',  ( 101.8000000000000000, -14.00000000000000000, 460.0000000000000000 ) ) ;
#125 = DIRECTION ( 'NONE',  ( 0.0000000000000000000, -1.000000000000000000, 0.0000000000000000000 ) ) ;
#126 = DIRECTION ( 'NONE',  ( 1.000000000000000000, 0.0000000000000000000, -0.0000000000000000000 ) ) ;
#127 = CARTESIAN_POINT ( 'NONE',  ( 101.0000000000000000, 0.0000000000000000000, 0.0000000000000000000 ) ) ;
#128 = DIRECTION ( 'NONE',  ( -0.0000000000000000000, 0.0000000000000000000, -1.000000000000000000 ) ) ;
#129 = DIRECTION ( 'NONE',  ( 1.000000000000000000, 0.0000000000000000000, 0.0000000000000000000 ) ) ;
#130 =( LENGTH_UNIT ( ) NAMED_UNIT ( * ) SI_UNIT ( .MILLI., .METRE. ) );
#131 =( NAMED_UNIT ( * ) PLANE_ANGLE_UNIT ( ) SI_UNIT ( $, .RADIAN. ) );
#132 = CARTESIAN_POINT ( 'NONE',  ( -101.8000000000000000, -14.00000000000000000, 460.0000000000000000 ) ) ;
#133 = CARTESIAN_POINT ( 'NONE',  ( -101.8000000000000000, 0.8000000000000000400, 460.0000000000000000 ) ) ;
#134 = CARTESIAN_POINT ( 'NONE',  ( 101.8000000000000000, 0.8000000000000000400, 0.0000000000000000000 ) ) ;
#135 = CARTESIAN_POINT ( 'NONE',  ( -101.0000000000000000, -14.00000000000000000, 0.0000000000000000000 ) ) ;
#136 = DIRECTION ( 'NONE',  ( 0.0000000000000000000, 0.0000000000000000000, 1.000000000000000000 ) ) ;
#137 = CARTESIAN_POINT ( 'NONE',  ( 101.8000000000000000, 0.8000000000000000400, 460.0000000000000000 ) ) ;
#138 = DIRECTION ( 'NONE',  ( -0.0000000000000000000, 1.000000000000000000, -0.0000000000000000000 ) ) ;
#139 = CARTESIAN_POINT ( 'NONE',  ( -101.0000000000000000, 0.0000000000000000000, 460.0000000000000000 ) ) ;
#140 = CARTESIAN_POINT ( 'NONE',  ( -8.162383766162930900E-016, -14.00099999999999900, 445.0000000000000600 ) ) ;
#141 = DIRECTION ( 'NONE',  ( 0.0000000000000000000, 0.0000000000000000000, 1.000000000000000000 ) ) ;
#142 = CARTESIAN_POINT ( 'NONE',  ( 1.734723475976807100E-015, -14.00099999999999900, 14.99999999999999300 ) ) ;
#143 = CARTESIAN_POINT ( 'NONE',  ( -101.8000000000000000, -14.00000000000000000, 0.0000000000000000000 ) ) ;
#144 = DIRECTION ( 'NONE',  ( 0.0000000000000000000, -0.0000000000000000000, 1.000000000000000000 ) ) ;
#145 = DIRECTION ( 'NONE',  ( -0.0000000000000000000, -0.0000000000000000000, -1.000000000000000000 ) ) ;
#146 = DIRECTION ( 'NONE',  ( 0.0000000000000000000, 0.0000000000000000000, 1.000000000000000000 ) ) ;
#147 = CARTESIAN_POINT ( 'NONE',  ( -8.162383766162930900E-016, 0.8000000000000000400, 442.5000000000000600 ) ) ;
#148 = APPLICATION_PROTOCOL_DEFINITION ( 'international standard', 'config_control_design', 1994, #40 ) ;
#149 = DIRECTION ( 'NONE',  ( 0.0000000000000000000, -0.0000000000000000000, -1.000000000000000000 ) ) ;
#150 = CARTESIAN_POINT ( 'NONE',  ( -8.162383766162930900E-016, 0.0000000000000000000, 447.5000000000000600 ) ) ;
#151 = DIRECTION ( 'NONE',  ( 0.0000000000000000000, -1.000000000000000000, 0.0000000000000000000 ) ) ;
#152 = EDGE_LOOP ( 'NONE', ( #370, #377, #371, #389 ) ) ;
#153 = EDGE_LOOP ( 'NONE', ( #269 ) ) ;
#154 = EDGE_LOOP ( 'NONE', ( #368 ) ) ;
#155 = EDGE_LOOP ( 'NONE', ( #331, #327, #328, #322 ) ) ;
#156 = EDGE_LOOP ( 'NONE', ( #263, #332, #333, #330 ) ) ;
#157 = EDGE_LOOP ( 'NONE', ( #281 ) ) ;
#158 = EDGE_LOOP ( 'NONE', ( #323, #283, #305, #273 ) ) ;
#159 = EDGE_LOOP ( 'NONE', ( #387, #276, #279, #284 ) ) ;
#160 = EDGE_LOOP ( 'NONE', ( #272, #278, #275, #375 ) ) ;
#161 = EDGE_LOOP ( 'NONE', ( #342, #335, #271, #336 ) ) ;
#162 = EDGE_LOOP ( 'NONE', ( #396 ) ) ;
#163 = EDGE_LOOP ( 'NONE', ( #270, #266, #268, #343 ) ) ;
#164 = EDGE_LOOP ( 'NONE', ( #391 ) ) ;
#165 = EDGE_LOOP ( 'NONE', ( #366, #339, #338, #260, #261, #367, #264, #324 ) ) ;
#166 = AXIS2_PLACEMENT_3D ( 'NONE', #140, #138, #141 ) ;
#167 = AXIS2_PLACEMENT_3D ( 'NONE', #142, #43, #41 ) ;
#168 = AXIS2_PLACEMENT_3D ( 'NONE', #69, #39, #144 ) ;
#169 = AXIS2_PLACEMENT_3D ( 'NONE', #139, #46, #48 ) ;
#170 = SECURITY_CLASSIFICATION ( '', '', #77 ) ;
#171 = APPROVAL ( #92, 'UNSPECIFIED' ) ;
#172 = AXIS2_PLACEMENT_3D ( 'NONE', #30, #24, #136 ) ;
#173 = AXIS2_PLACEMENT_3D ( 'NONE', #86, #114, #115 ) ;
#174 = AXIS2_PLACEMENT_3D ( 'NONE', #107, #109, #110 ) ;
#175 = AXIS2_PLACEMENT_3D ( 'NONE', #88, #99, #102 ) ;
#176 = AXIS2_PLACEMENT_3D ( 'NONE', #17, #57, #8 ) ;
#177 = EDGE_CURVE ( 'NONE', #402, #312, #259, .T. ) ;
#178 = EDGE_CURVE ( 'NONE', #414, #398, #251, .T. ) ;
#179 = AXIS2_PLACEMENT_3D ( 'NONE', #9, #146, #129 ) ;
#180 = EDGE_CURVE ( 'NONE', #401, #262, #243, .T. ) ;
#181 = EDGE_CURVE ( 'NONE', #416, #414, #253, .T. ) ;
#182 = EDGE_CURVE ( 'NONE', #402, #401, #247, .T. ) ;
#183 = EDGE_CURVE ( 'NONE', #416, #400, #237, .T. ) ;
#184 = EDGE_CURVE ( 'NONE', #351, #351, #257, .T. ) ;
#185 = EDGE_CURVE ( 'NONE', #409, #414, #320, .T. ) ;
#186 = AXIS2_PLACEMENT_3D ( 'NONE', #112, #4, #2 ) ;
#187 = AXIS2_PLACEMENT_3D ( 'NONE', #124, #151, #149 ) ;
#188 = EDGE_CURVE ( 'NONE', #400, #398, #319, .T. ) ;
#189 = AXIS2_PLACEMENT_3D ( 'NONE', #105, #126, #128 ) ;
#190 = AXIS2_PLACEMENT_3D ( 'NONE', #68, #50, #97 ) ;
#191 = EDGE_CURVE ( 'NONE', #413, #409, #310, .T. ) ;
#192 = AXIS2_PLACEMENT_3D ( 'NONE', #47, #61, #63 ) ;
#193 = AXIS2_PLACEMENT_3D ( 'NONE', #45, #53, #54 ) ;
#194 =( GEOMETRIC_REPRESENTATION_CONTEXT ( 3 ) GLOBAL_UNCERTAINTY_ASSIGNED_CONTEXT ( ( #421 ) ) GLOBAL_UNIT_ASSIGNED_CONTEXT ( ( #130, #131, #101 ) ) REPRESENTATION_CONTEXT ( 'NONE', 'WORKASPACE' ) );
#195 = EDGE_CURVE ( 'NONE', #413, #416, #393, .T. ) ;
#196 = EDGE_CURVE ( 'NONE', #410, #409, #293, .T. ) ;
#197 = EDGE_CURVE ( 'NONE', #412, #410, #286, .T. ) ;
#198 = EDGE_CURVE ( 'NONE', #412, #413, #277, .T. ) ;
#199 = EDGE_CURVE ( 'NONE', #415, #410, #302, .T. ) ;
#200 = EDGE_CURVE ( 'NONE', #408, #415, #297, .T. ) ;
#201 = EDGE_CURVE ( 'NONE', #408, #412, #304, .T. ) ;
#202 = EDGE_CURVE ( 'NONE', #415, #406, #307, .T. ) ;
#203 = EDGE_CURVE ( 'NONE', #407, #406, #280, .T. ) ;
#204 = EDGE_CURVE ( 'NONE', #408, #407, #308, .T. ) ;
#205 = EDGE_CURVE ( 'NONE', #350, #350, #417, .T. ) ;
#206 = EDGE_CURVE ( 'NONE', #349, #349, #418, .T. ) ;
#207 = EDGE_CURVE ( 'NONE', #406, #312, #405, .T. ) ;
#208 = EDGE_CURVE ( 'NONE', #407, #402, #340, .T. ) ;
#209 = EDGE_CURVE ( 'NONE', #312, #262, #241, .T. ) ;
#210 = EDGE_CURVE ( 'NONE', #348, #348, #234, .T. ) ;
#211 = EDGE_CURVE ( 'NONE', #400, #401, #378, .T. ) ;
#212 = EDGE_CURVE ( 'NONE', #398, #262, #233, .T. ) ;
#213 = CC_DESIGN_PERSON_AND_ORGANIZATION_ASSIGNMENT ( #244, #76, ( #170 ) ) ;
#214 = CC_DESIGN_DATE_AND_TIME_ASSIGNMENT ( #252, #72, ( #170 ) ) ;
#215 = CC_DESIGN_PERSON_AND_ORGANIZATION_ASSIGNMENT ( #250, #78, ( #218 ) ) ;
#216 = CC_DESIGN_PERSON_AND_ORGANIZATION_ASSIGNMENT ( #249, #79, ( #218 ) ) ;
#217 = CC_DESIGN_APPROVAL ( #219, ( #218 ) ) ;
#218 = PRODUCT_DEFINITION_FORMATION_WITH_SPECIFIED_SOURCE ( 'ANY', '', #230, .NOT_KNOWN. ) ;
#219 = APPROVAL ( #82, 'UNSPECIFIED' ) ;
#220 = CC_DESIGN_PERSON_AND_ORGANIZATION_ASSIGNMENT ( #299, #81, ( #223 ) ) ;
#221 = APPROVAL ( #60, 'UNSPECIFIED' ) ;
#222 = CC_DESIGN_DATE_AND_TIME_ASSIGNMENT ( #289, #85, ( #223 ) ) ;
#223 = PRODUCT_DEFINITION ( 'UNKNOWN', '', #218, #437 ) ;
#224 = CC_DESIGN_PERSON_AND_ORGANIZATION_ASSIGNMENT ( #346, #95, ( #230 ) ) ;
#225 = AXIS2_PLACEMENT_3D ( 'NONE', #91, #106, #108 ) ;
#226 = CC_DESIGN_APPROVAL ( #171, ( #223 ) ) ;
#227 = CC_DESIGN_SECURITY_CLASSIFICATION ( #170, ( #218 ) ) ;
#228 = PRODUCT_RELATED_PRODUCT_CATEGORY ( 'detail', '', ( #230 ) ) ;
#229 = CC_DESIGN_APPROVAL ( #221, ( #170 ) ) ;
#230 = PRODUCT ( 'Êðûøêà íà îòâåòâèòåëü Ò-îáðàçíûé âåðòèêàëüíûé áîêîâîé TDS_38324', 'Êðûøêà íà îòâåòâèòåëü Ò-îáðàçíûé âåðòèêàëüíûé áîêîâîé TDS_38324', '', ( #18 ) ) ;
#231 = PERSON ( 'UNSPECIFIED', 'UNSPECIFIED', 'UNSPECIFIED', ('UNSPECIFIED'), ('UNSPECIFIED'), ('UNSPECIFIED') ) ;
#232 = VECTOR ( 'NONE', #20, 1000.000000000000000 ) ;
#233 = LINE ( 'NONE', #87, #379 ) ;
#234 = CIRCLE ( 'NONE', #172, 2.500000000000002200 ) ;
#235 = VECTOR ( 'NONE', #62, 1000.000000000000000 ) ;
#236 = FACE_OUTER_BOUND ( 'NONE', #240, .T. ) ;
#237 = LINE ( 'NONE', #23, #316 ) ;
#238 = CYLINDRICAL_SURFACE ( 'NONE', #167, 2.500000000000002200 ) ;
#239 = VECTOR ( 'NONE', #25, 1000.000000000000000 ) ;
#240 = EDGE_LOOP ( 'NONE', ( #395 ) ) ;
#241 = LINE ( 'NONE', #122, #254 ) ;
#242 = FACE_OUTER_BOUND ( 'NONE', #162, .T. ) ;
#243 = LINE ( 'NONE', #31, #239 ) ;
#244 = PERSON_AND_ORGANIZATION ( #231, #345 ) ;
#245 = LOCAL_TIME ( 12, 44, 36.00000000000000000, #314 ) ;
#246 = CALENDAR_DATE ( 2012, 9, 11 ) ;
#247 = LINE ( 'NONE', #83, #399 ) ;
#248 = VECTOR ( 'NONE', #96, 1000.000000000000000 ) ;
#249 = PERSON_AND_ORGANIZATION ( #231, #345 ) ;
#250 = PERSON_AND_ORGANIZATION ( #231, #345 ) ;
#251 = LINE ( 'NONE', #98, #248 ) ;
#252 = DATE_AND_TIME ( #246, #245 ) ;
#253 = LINE ( 'NONE', #26, #232 ) ;
#254 = VECTOR ( 'NONE', #125, 1000.000000000000000 ) ;
#255 = APPROVAL_DATE_TIME ( #285, #219 ) ;
#256 = EDGE_LOOP ( 'NONE', ( #394 ) ) ;
#257 = CIRCLE ( 'NONE', #176, 2.500000000000002200 ) ;
#258 = VECTOR ( 'NONE', #38, 1000.000000000000000 ) ;
#259 = LINE ( 'NONE', #65, #258 ) ;
#260 = ORIENTED_EDGE ( 'NONE', *, *, #195, .F. ) ;
#261 = ORIENTED_EDGE ( 'NONE', *, *, #198, .F. ) ;
#262 = VERTEX_POINT ( 'NONE', #10 ) ;
#263 = ORIENTED_EDGE ( 'NONE', *, *, #196, .F. ) ;
#264 = ORIENTED_EDGE ( 'NONE', *, *, #204, .T. ) ;
#265 = VECTOR ( 'NONE', #55, 1000.000000000000000 ) ;
#266 = ORIENTED_EDGE ( 'NONE', *, *, #177, .F. ) ;
#267 = ORIENTED_EDGE ( 'NONE', *, *, #196, .T. ) ;
#268 = ORIENTED_EDGE ( 'NONE', *, *, #208, .F. ) ;
#269 = ORIENTED_EDGE ( 'NONE', *, *, #206, .F. ) ;
#270 = ORIENTED_EDGE ( 'NONE', *, *, #207, .T. ) ;
#271 = ORIENTED_EDGE ( 'NONE', *, *, #195, .T. ) ;
#272 = ORIENTED_EDGE ( 'NONE', *, *, #178, .F. ) ;
#273 = ORIENTED_EDGE ( 'NONE', *, *, #200, .T. ) ;
#274 = VECTOR ( 'NONE', #119, 1000.000000000000000 ) ;
#275 = ORIENTED_EDGE ( 'NONE', *, *, #183, .T. ) ;
#276 = ORIENTED_EDGE ( 'NONE', *, *, #188, .F. ) ;
#277 = LINE ( 'NONE', #104, #300 ) ;
#278 = ORIENTED_EDGE ( 'NONE', *, *, #181, .F. ) ;
#279 = ORIENTED_EDGE ( 'NONE', *, *, #211, .T. ) ;
#280 = LINE ( 'NONE', #66, #388 ) ;
#281 = ORIENTED_EDGE ( 'NONE', *, *, #205, .F. ) ;
#282 = VECTOR ( 'NONE', #70, 1000.000000000000000 ) ;
#283 = ORIENTED_EDGE ( 'NONE', *, *, #203, .F. ) ;
#284 = ORIENTED_EDGE ( 'NONE', *, *, #180, .T. ) ;
#285 = DATE_AND_TIME ( #288, #296 ) ;
#286 = LINE ( 'NONE', #123, #303 ) ;
#287 = APPROVAL_DATE_TIME ( #386, #221 ) ;
#288 = CALENDAR_DATE ( 2012, 9, 11 ) ;
#289 = DATE_AND_TIME ( #317, #315 ) ;
#290 = PERSON_AND_ORGANIZATION ( #231, #345 ) ;
#291 = APPROVAL_PERSON_ORGANIZATION ( #290, #219, #74 ) ;
#292 = VECTOR ( 'NONE', #113, 1000.000000000000000 ) ;
#293 = LINE ( 'NONE', #52, #282 ) ;
#294 = VECTOR ( 'NONE', #28, 1000.000000000000000 ) ;
#295 = COORDINATED_UNIVERSAL_TIME_OFFSET ( 4, 0, .AHEAD. ) ;
#296 = LOCAL_TIME ( 12, 44, 36.00000000000000000, #295 ) ;
#297 = LINE ( 'NONE', #44, #306 ) ;
#298 = APPROVAL_DATE_TIME ( #344, #171 ) ;
#299 = PERSON_AND_ORGANIZATION ( #231, #345 ) ;
#300 = VECTOR ( 'NONE', #90, 1000.000000000000000 ) ;
#301 = COORDINATED_UNIVERSAL_TIME_OFFSET ( 4, 0, .AHEAD. ) ;
#302 = LINE ( 'NONE', #117, #309 ) ;
#303 = VECTOR ( 'NONE', #120, 1000.000000000000000 ) ;
#304 = LINE ( 'NONE', #35, #265 ) ;
#305 = ORIENTED_EDGE ( 'NONE', *, *, #204, .F. ) ;
#306 = VECTOR ( 'NONE', #51, 1000.000000000000000 ) ;
#307 = LINE ( 'NONE', #59, #235 ) ;
#308 = LINE ( 'NONE', #73, #419 ) ;
#309 = VECTOR ( 'NONE', #19, 1000.000000000000000 ) ;
#310 = LINE ( 'NONE', #11, #294 ) ;
#311 = VECTOR ( 'NONE', #33, 1000.000000000000000 ) ;
#312 = VERTEX_POINT ( 'NONE', #127 ) ;
#313 = VECTOR ( 'NONE', #116, 1000.000000000000000 ) ;
#314 = COORDINATED_UNIVERSAL_TIME_OFFSET ( 4, 0, .AHEAD. ) ;
#315 = LOCAL_TIME ( 12, 44, 36.00000000000000000, #301 ) ;
#316 = VECTOR ( 'NONE', #7, 1000.000000000000000 ) ;
#317 = CALENDAR_DATE ( 2012, 9, 11 ) ;
#318 = APPROVAL_PERSON_ORGANIZATION ( #347, #171, #89 ) ;
#319 = LINE ( 'NONE', #32, #321 ) ;
#320 = LINE ( 'NONE', #12, #311 ) ;
#321 = VECTOR ( 'NONE', #145, 1000.000000000000000 ) ;
#322 = ORIENTED_EDGE ( 'NONE', *, *, #197, .T. ) ;
#323 = ORIENTED_EDGE ( 'NONE', *, *, #202, .T. ) ;
#324 = ORIENTED_EDGE ( 'NONE', *, *, #208, .T. ) ;
#325 = ORIENTED_EDGE ( 'NONE', *, *, #199, .T. ) ;
#326 = ORIENTED_EDGE ( 'NONE', *, *, #209, .F. ) ;
#327 = ORIENTED_EDGE ( 'NONE', *, *, #200, .F. ) ;
#328 = ORIENTED_EDGE ( 'NONE', *, *, #201, .T. ) ;
#329 = COORDINATED_UNIVERSAL_TIME_OFFSET ( 4, 0, .AHEAD. ) ;
#330 = ORIENTED_EDGE ( 'NONE', *, *, #191, .T. ) ;
#331 = ORIENTED_EDGE ( 'NONE', *, *, #199, .F. ) ;
#332 = ORIENTED_EDGE ( 'NONE', *, *, #197, .F. ) ;
#333 = ORIENTED_EDGE ( 'NONE', *, *, #198, .T. ) ;
#334 = ORIENTED_EDGE ( 'NONE', *, *, #212, .T. ) ;
#335 = ORIENTED_EDGE ( 'NONE', *, *, #191, .F. ) ;
#336 = ORIENTED_EDGE ( 'NONE', *, *, #181, .T. ) ;
#337 = LOCAL_TIME ( 12, 44, 36.00000000000000000, #329 ) ;
#338 = ORIENTED_EDGE ( 'NONE', *, *, #183, .F. ) ;
#339 = ORIENTED_EDGE ( 'NONE', *, *, #211, .F. ) ;
#340 = LINE ( 'NONE', #80, #274 ) ;
#341 = CALENDAR_DATE ( 2012, 9, 11 ) ;
#342 = ORIENTED_EDGE ( 'NONE', *, *, #185, .F. ) ;
#343 = ORIENTED_EDGE ( 'NONE', *, *, #203, .T. ) ;
#344 = DATE_AND_TIME ( #341, #337 ) ;
#345 = ORGANIZATION ( 'UNSPECIFIED', 'UNSPECIFIED', '' ) ;
#346 = PERSON_AND_ORGANIZATION ( #231, #345 ) ;
#347 = PERSON_AND_ORGANIZATION ( #231, #345 ) ;
#348 = VERTEX_POINT ( 'NONE', #21 ) ;
#349 = VERTEX_POINT ( 'NONE', #13 ) ;
#350 = VERTEX_POINT ( 'NONE', #150 ) ;
#351 = VERTEX_POINT ( 'NONE', #147 ) ;
#352 = FACE_OUTER_BOUND ( 'NONE', #159, .T. ) ;
#353 = FACE_OUTER_BOUND ( 'NONE', #403, .T. ) ;
#354 = SHAPE_DEFINITION_REPRESENTATION ( #436, #422 ) ;
#355 = FACE_OUTER_BOUND ( 'NONE', #160, .T. ) ;
#356 = FACE_BOUND ( 'NONE', #154, .T. ) ;
#357 = FACE_OUTER_BOUND ( 'NONE', #161, .T. ) ;
#358 = FACE_OUTER_BOUND ( 'NONE', #165, .T. ) ;
#359 = FACE_BOUND ( 'NONE', #164, .T. ) ;
#360 = FACE_OUTER_BOUND ( 'NONE', #152, .T. ) ;
#361 = CYLINDRICAL_SURFACE ( 'NONE', #166, 2.500000000000002200 ) ;
#362 = FACE_OUTER_BOUND ( 'NONE', #404, .T. ) ;
#363 = FACE_BOUND ( 'NONE', #153, .T. ) ;
#364 = FACE_OUTER_BOUND ( 'NONE', #156, .T. ) ;
#365 = FACE_OUTER_BOUND ( 'NONE', #256, .T. ) ;
#366 = ORIENTED_EDGE ( 'NONE', *, *, #182, .T. ) ;
#367 = ORIENTED_EDGE ( 'NONE', *, *, #201, .F. ) ;
#368 = ORIENTED_EDGE ( 'NONE', *, *, #210, .F. ) ;
#369 = ORIENTED_EDGE ( 'NONE', *, *, #207, .F. ) ;
#370 = ORIENTED_EDGE ( 'NONE', *, *, #209, .T. ) ;
#371 = ORIENTED_EDGE ( 'NONE', *, *, #182, .F. ) ;
#372 = ORIENTED_EDGE ( 'NONE', *, *, #202, .F. ) ;
#373 = ORIENTED_EDGE ( 'NONE', *, *, #185, .T. ) ;
#374 = FACE_OUTER_BOUND ( 'NONE', #158, .T. ) ;
#375 = ORIENTED_EDGE ( 'NONE', *, *, #188, .T. ) ;
#376 = VECTOR ( 'NONE', #22, 1000.000000000000000 ) ;
#377 = ORIENTED_EDGE ( 'NONE', *, *, #180, .F. ) ;
#378 = LINE ( 'NONE', #118, #376 ) ;
#379 = VECTOR ( 'NONE', #6, 1000.000000000000000 ) ;
#380 = FACE_OUTER_BOUND ( 'NONE', #163, .T. ) ;
#381 = PERSON_AND_ORGANIZATION ( #231, #345 ) ;
#382 = APPROVAL_PERSON_ORGANIZATION ( #381, #221, #58 ) ;
#383 = COORDINATED_UNIVERSAL_TIME_OFFSET ( 4, 0, .AHEAD. ) ;
#384 = LOCAL_TIME ( 12, 44, 36.00000000000000000, #383 ) ;
#385 = CALENDAR_DATE ( 2012, 9, 11 ) ;
#386 = DATE_AND_TIME ( #385, #384 ) ;
#387 = ORIENTED_EDGE ( 'NONE', *, *, #212, .F. ) ;
#388 = VECTOR ( 'NONE', #71, 1000.000000000000000 ) ;
#389 = ORIENTED_EDGE ( 'NONE', *, *, #177, .T. ) ;
#390 = CLOSED_SHELL ( 'NONE', ( #432, #435, #433, #430, #429, #428, #427, #424, #431, #434, #425, #426 ) ) ;
#391 = ORIENTED_EDGE ( 'NONE', *, *, #184, .F. ) ;
#392 = ORIENTED_EDGE ( 'NONE', *, *, #205, .T. ) ;
#393 = LINE ( 'NONE', #100, #292 ) ;
#394 = ORIENTED_EDGE ( 'NONE', *, *, #206, .T. ) ;
#395 = ORIENTED_EDGE ( 'NONE', *, *, #210, .T. ) ;
#396 = ORIENTED_EDGE ( 'NONE', *, *, #184, .T. ) ;
#397 = ORIENTED_EDGE ( 'NONE', *, *, #178, .T. ) ;
#398 = VERTEX_POINT ( 'NONE', #15 ) ;
#399 = VECTOR ( 'NONE', #14, 1000.000000000000000 ) ;
#400 = VERTEX_POINT ( 'NONE', #3 ) ;
#401 = VERTEX_POINT ( 'NONE', #1 ) ;
#402 = VERTEX_POINT ( 'NONE', #64 ) ;
#403 = EDGE_LOOP ( 'NONE', ( #326, #369, #372, #325, #267, #373, #397, #334 ) ) ;
#404 = EDGE_LOOP ( 'NONE', ( #392 ) ) ;
#405 = LINE ( 'NONE', #67, #313 ) ;
#406 = VERTEX_POINT ( 'NONE', #27 ) ;
#407 = VERTEX_POINT ( 'NONE', #16 ) ;
#408 = VERTEX_POINT ( 'NONE', #37 ) ;
#409 = VERTEX_POINT ( 'NONE', #5 ) ;
#410 = VERTEX_POINT ( 'NONE', #143 ) ;
#411 = FACE_OUTER_BOUND ( 'NONE', #155, .T. ) ;
#412 = VERTEX_POINT ( 'NONE', #132 ) ;
#413 = VERTEX_POINT ( 'NONE', #133 ) ;
#414 = VERTEX_POINT ( 'NONE', #134 ) ;
#415 = VERTEX_POINT ( 'NONE', #135 ) ;
#416 = VERTEX_POINT ( 'NONE', #137 ) ;
#417 = CIRCLE ( 'NONE', #175, 2.500000000000002200 ) ;
#418 = CIRCLE ( 'NONE', #174, 2.500000000000002200 ) ;
#419 = VECTOR ( 'NONE', #75, 1000.000000000000000 ) ;
#420 = FACE_BOUND ( 'NONE', #157, .T. ) ;
#421 = UNCERTAINTY_MEASURE_WITH_UNIT (LENGTH_MEASURE( 1.000000000000000100E-005 ), #130, 'distance_accuracy_value', 'NONE');
#422 = ADVANCED_BREP_SHAPE_REPRESENTATION ( '¦¨v°úð ýð þªòõªòøªõû¹ T-þñ¨ð÷ývù òõ¨ªøúðû¹ývù ñþúþòþù TDS_38324', ( #423, #179 ), #194 ) ;
#423 = MANIFOLD_SOLID_BREP ( 'Âûðåç-Âûòÿíóòü1', #390 ) ;
#424 = ADVANCED_FACE ( 'NONE', ( #420, #363, #380 ), #34, .F. ) ;
#425 = ADVANCED_FACE ( 'NONE', ( #236, #365 ), #238, .F. ) ;
#426 = ADVANCED_FACE ( 'NONE', ( #242, #362 ), #361, .F. ) ;
#427 = ADVANCED_FACE ( 'NONE', ( #374 ), #42, .F. ) ;
#428 = ADVANCED_FACE ( 'NONE', ( #411 ), #49, .T. ) ;
#429 = ADVANCED_FACE ( 'NONE', ( #364 ), #56, .T. ) ;
#430 = ADVANCED_FACE ( 'NONE', ( #359, #356, #357 ), #84, .T. ) ;
#431 = ADVANCED_FACE ( 'NONE', ( #358 ), #103, .F. ) ;
#432 = ADVANCED_FACE ( 'NONE', ( #360 ), #111, .F. ) ;
#433 = ADVANCED_FACE ( 'NONE', ( #355 ), #121, .T. ) ;
#434 = ADVANCED_FACE ( 'NONE', ( #353 ), #36, .T. ) ;
#435 = ADVANCED_FACE ( 'NONE', ( #352 ), #29, .T. ) ;
#436 = PRODUCT_DEFINITION_SHAPE ( 'NONE', 'NONE',  #223 ) ;
#437 = DESIGN_CONTEXT ( 'detailed design', #94, 'design' ) ;
ENDSEC;
END-ISO-10303-21;
