ISO-10303-21;
HEADER;
FILE_DESCRIPTION (( 'STEP AP203' ),
    '1' );
FILE_NAME ('Êðûøêà íà îòâåòâèòåëü Ò-îáðàçíûé âåðòèêàëüíûé TDSR_38412.STEP',
    '2012-11-09T08:44:32',
    ( 'Àñååâ' ),
    ( '' ),
    'SwSTEP 2.0',
    'SolidWorks 2012',
    '' );
FILE_SCHEMA (( 'CONFIG_CONTROL_DESIGN' ));
ENDSEC;

DATA;
#1 = APPROVAL_ROLE ( '' ) ;
#2 = APPROVAL_STATUS ( 'not_yet_approved' ) ;
#3 = APPROVAL_ROLE ( '' ) ;
#4 = APPROVAL_STATUS ( 'not_yet_approved' ) ;
#5 = DIRECTION ( 'NONE',  ( 0.0000000000000000000, 1.000000000000000000, 0.0000000000000000000 ) ) ;
#6 = APPLICATION_PROTOCOL_DEFINITION ( 'international standard', 'config_control_design', 1994, #7 ) ;
#7 = APPLICATION_CONTEXT ( 'configuration controlled 3d designs of mechanical parts and assemblies' ) ;
#8 = PERSON_AND_ORGANIZATION_ROLE ( 'design_owner' ) ;
#9 = MECHANICAL_CONTEXT ( 'NONE', #11, 'mechanical' ) ;
#10 = DIRECTION ( 'NONE',  ( 1.000000000000000000, 0.0000000000000000000, 0.0000000000000000000 ) ) ;
#11 = APPLICATION_CONTEXT ( 'configuration controlled 3d designs of mechanical parts and assemblies' ) ;
#12 = CARTESIAN_POINT ( 'NONE',  ( -251.0000000000000000, 0.5999999999999999800, 460.0000000000000000 ) ) ;
#13 = APPLICATION_PROTOCOL_DEFINITION ( 'international standard', 'config_control_design', 1994, #11 ) ;
#14 = DIRECTION ( 'NONE',  ( -0.0000000000000000000, 0.0000000000000000000, -1.000000000000000000 ) ) ;
#15 = DIRECTION ( 'NONE',  ( 1.000000000000000000, 0.0000000000000000000, -0.0000000000000000000 ) ) ;
#16 =( NAMED_UNIT ( * ) SI_UNIT ( $, .STERADIAN. ) SOLID_ANGLE_UNIT ( ) );
#17 =( NAMED_UNIT ( * ) PLANE_ANGLE_UNIT ( ) SI_UNIT ( $, .RADIAN. ) );
#18 = DIRECTION ( 'NONE',  ( 0.0000000000000000000, 1.000000000000000000, 0.0000000000000000000 ) ) ;
#19 =( LENGTH_UNIT ( ) NAMED_UNIT ( * ) SI_UNIT ( .MILLI., .METRE. ) );
#20 = PLANE ( 'NONE',  #76 ) ;
#21 = CARTESIAN_POINT ( 'NONE',  ( 1.734723475976807100E-015, -14.00099999999999900, 14.99999999999999300 ) ) ;
#22 = DIRECTION ( 'NONE',  ( 0.0000000000000000000, 0.0000000000000000000, 1.000000000000000000 ) ) ;
#23 = CARTESIAN_POINT ( 'NONE',  ( 251.5999999999999900, -14.00000000000000000, 460.0000000000000000 ) ) ;
#24 = DIRECTION ( 'NONE',  ( 0.0000000000000000000, 0.0000000000000000000, 1.000000000000000000 ) ) ;
#25 = DIRECTION ( 'NONE',  ( -1.000000000000000000, 0.0000000000000000000, 0.0000000000000000000 ) ) ;
#26 = CARTESIAN_POINT ( 'NONE',  ( 0.0000000000000000000, 0.0000000000000000000, 460.0000000000000000 ) ) ;
#27 = DIRECTION ( 'NONE',  ( -1.000000000000000000, 0.0000000000000000000, 0.0000000000000000000 ) ) ;
#28 = CARTESIAN_POINT ( 'NONE',  ( 0.0000000000000000000, 0.0000000000000000000, 0.0000000000000000000 ) ) ;
#29 = DIRECTION ( 'NONE',  ( 0.0000000000000000000, 0.0000000000000000000, 1.000000000000000000 ) ) ;
#30 = DIRECTION ( 'NONE',  ( -0.0000000000000000000, 1.000000000000000000, -0.0000000000000000000 ) ) ;
#31 = CARTESIAN_POINT ( 'NONE',  ( -251.0000000000000000, 0.0000000000000000000, 460.0000000000000000 ) ) ;
#32 = DIRECTION ( 'NONE',  ( 0.0000000000000000000, -1.000000000000000000, 0.0000000000000000000 ) ) ;
#33 = APPROVAL_STATUS ( 'not_yet_approved' ) ;
#34 = DATE_TIME_ROLE ( 'creation_date' ) ;
#35 = SECURITY_CLASSIFICATION_LEVEL ( 'unclassified' ) ;
#36 = PLANE ( 'NONE',  #133 ) ;
#37 = PERSON_AND_ORGANIZATION_ROLE ( 'creator' ) ;
#38 = PERSON_AND_ORGANIZATION_ROLE ( 'design_supplier' ) ;
#39 = DIRECTION ( 'NONE',  ( 1.000000000000000000, 0.0000000000000000000, -0.0000000000000000000 ) ) ;
#40 = PLANE ( 'NONE',  #89 ) ;
#41 = PERSON_AND_ORGANIZATION_ROLE ( 'creator' ) ;
#42 = APPROVAL_ROLE ( '' ) ;
#43 = DIRECTION ( 'NONE',  ( -0.0000000000000000000, 1.000000000000000000, -0.0000000000000000000 ) ) ;
#44 = DATE_TIME_ROLE ( 'classification_date' ) ;
#45 = PERSON_AND_ORGANIZATION_ROLE ( 'classification_officer' ) ;
#46 = DIRECTION ( 'NONE',  ( -0.0000000000000000000, 0.0000000000000000000, -1.000000000000000000 ) ) ;
#47 = CARTESIAN_POINT ( 'NONE',  ( 0.0000000000000000000, 0.5999999999999999800, 442.5000000000000600 ) ) ;
#48 = DIRECTION ( 'NONE',  ( 0.0000000000000000000, 0.0000000000000000000, 1.000000000000000000 ) ) ;
#49 = CARTESIAN_POINT ( 'NONE',  ( 1.734723475976807100E-015, 0.5999999999999999800, 17.49999999999999600 ) ) ;
#50 = PLANE ( 'NONE',  #138 ) ;
#51 = CARTESIAN_POINT ( 'NONE',  ( 0.0000000000000000000, -14.00099999999999900, 445.0000000000000600 ) ) ;
#52 = DIRECTION ( 'NONE',  ( 0.0000000000000000000, -0.0000000000000000000, -1.000000000000000000 ) ) ;
#53 = DIRECTION ( 'NONE',  ( 0.0000000000000000000, -0.0000000000000000000, 1.000000000000000000 ) ) ;
#54 = DIRECTION ( 'NONE',  ( 0.0000000000000000000, -1.000000000000000000, 0.0000000000000000000 ) ) ;
#55 = CARTESIAN_POINT ( 'NONE',  ( 0.0000000000000000000, 0.0000000000000000000, 447.5000000000000600 ) ) ;
#56 = DIRECTION ( 'NONE',  ( -1.000000000000000000, 0.0000000000000000000, 0.0000000000000000000 ) ) ;
#57 = CARTESIAN_POINT ( 'NONE',  ( 1.734723475976807100E-015, 0.0000000000000000000, 17.49999999999999600 ) ) ;
#58 = PLANE ( 'NONE',  #135 ) ;
#59 = DIRECTION ( 'NONE',  ( 0.0000000000000000000, -0.0000000000000000000, -1.000000000000000000 ) ) ;
#60 = CARTESIAN_POINT ( 'NONE',  ( -251.0000000000000000, 0.0000000000000000000, 460.0000000000000000 ) ) ;
#61 = CARTESIAN_POINT ( 'NONE',  ( -251.5999999999999900, 0.5999999999999999800, 0.0000000000000000000 ) ) ;
#62 = CARTESIAN_POINT ( 'NONE',  ( 0.0000000000000000000, 0.0000000000000000000, 0.0000000000000000000 ) ) ;
#63 = PLANE ( 'NONE',  #137 ) ;
#64 = DIRECTION ( 'NONE',  ( -1.000000000000000000, 0.0000000000000000000, 0.0000000000000000000 ) ) ;
#65 = DIRECTION ( 'NONE',  ( -0.0000000000000000000, 0.0000000000000000000, -1.000000000000000000 ) ) ;
#66 = CARTESIAN_POINT ( 'NONE',  ( -251.0000000000000000, -14.00000000000000000, 460.0000000000000000 ) ) ;
#67 = PLANE ( 'NONE',  #136 ) ;
#68 = CARTESIAN_POINT ( 'NONE',  ( 251.0000000000000000, 0.0000000000000000000, 460.0000000000000000 ) ) ;
#69 = DIRECTION ( 'NONE',  ( -0.0000000000000000000, 0.0000000000000000000, -1.000000000000000000 ) ) ;
#70 = CARTESIAN_POINT ( 'NONE',  ( 251.5999999999999900, 0.0000000000000000000, 460.0000000000000000 ) ) ;
#71 = DIRECTION ( 'NONE',  ( 0.0000000000000000000, -0.0000000000000000000, 1.000000000000000000 ) ) ;
#72 = CARTESIAN_POINT ( 'NONE',  ( -251.5999999999999900, 0.0000000000000000000, 460.0000000000000000 ) ) ;
#73 = DIRECTION ( 'NONE',  ( 0.0000000000000000000, 0.0000000000000000000, 1.000000000000000000 ) ) ;
#74 = PLANE ( 'NONE',  #139 ) ;
#75 = PLANE ( 'NONE',  #90 ) ;
#76 = AXIS2_PLACEMENT_3D ( 'NONE', #68, #15, #14 ) ;
#77 = AXIS2_PLACEMENT_3D ( 'NONE', #21, #43, #48 ) ;
#78 = AXIS2_PLACEMENT_3D ( 'NONE', #51, #30, #22 ) ;
#79 = AXIS2_PLACEMENT_3D ( 'NONE', #23, #32, #52 ) ;
#80 = PRODUCT_RELATED_PRODUCT_CATEGORY ( 'detail', '', ( #140 ) ) ;
#81 = CC_DESIGN_SECURITY_CLASSIFICATION ( #86, ( #125 ) ) ;
#82 = CC_DESIGN_APPROVAL ( #83, ( #86 ) ) ;
#83 = APPROVAL ( #2, 'UNSPECIFIED' ) ;
#84 = CC_DESIGN_DATE_AND_TIME_ASSIGNMENT ( #359, #44, ( #86 ) ) ;
#85 = CC_DESIGN_PERSON_AND_ORGANIZATION_ASSIGNMENT ( #365, #45, ( #86 ) ) ;
#86 = SECURITY_CLASSIFICATION ( '', '', #35 ) ;
#87 = CC_DESIGN_PERSON_AND_ORGANIZATION_ASSIGNMENT ( #364, #38, ( #125 ) ) ;
#88 = CC_DESIGN_PERSON_AND_ORGANIZATION_ASSIGNMENT ( #363, #41, ( #125 ) ) ;
#89 = AXIS2_PLACEMENT_3D ( 'NONE', #70, #39, #46 ) ;
#90 = AXIS2_PLACEMENT_3D ( 'NONE', #60, #56, #73 ) ;
#91 = AXIS2_PLACEMENT_3D ( 'NONE', #180, #178, #177 ) ;
#92 = AXIS2_PLACEMENT_3D ( 'NONE', #188, #186, #184 ) ;
#93 = AXIS2_PLACEMENT_3D ( 'NONE', #421, #426, #425 ) ;
#94 = AXIS2_PLACEMENT_3D ( 'NONE', #432, #433, #434 ) ;
#95 = EDGE_CURVE ( 'NONE', #236, #235, #205, .T. ) ;
#96 = EDGE_CURVE ( 'NONE', #390, #390, #295, .T. ) ;
#97 = EDGE_CURVE ( 'NONE', #226, #231, #202, .T. ) ;
#98 = EDGE_CURVE ( 'NONE', #387, #387, #206, .T. ) ;
#99 = EDGE_CURVE ( 'NONE', #292, #235, #201, .T. ) ;
#100 = EDGE_CURVE ( 'NONE', #232, #292, #203, .T. ) ;
#101 = EDGE_CURVE ( 'NONE', #233, #239, #199, .T. ) ;
#102 = EDGE_CURVE ( 'NONE', #232, #236, #238, .T. ) ;
#103 = EDGE_CURVE ( 'NONE', #240, #292, #325, .T. ) ;
#104 = EDGE_CURVE ( 'NONE', #229, #240, #327, .T. ) ;
#105 = EDGE_CURVE ( 'NONE', #229, #232, #323, .T. ) ;
#106 = EDGE_CURVE ( 'NONE', #234, #240, #311, .T. ) ;
#107 = EDGE_CURVE ( 'NONE', #227, #234, #309, .T. ) ;
#108 = EDGE_CURVE ( 'NONE', #227, #229, #321, .T. ) ;
#109 = EDGE_CURVE ( 'NONE', #234, #225, #315, .T. ) ;
#110 = EDGE_CURVE ( 'NONE', #237, #225, #313, .T. ) ;
#111 = EDGE_CURVE ( 'NONE', #227, #237, #307, .T. ) ;
#112 = EDGE_CURVE ( 'NONE', #389, #389, #320, .T. ) ;
#113 = EDGE_CURVE ( 'NONE', #339, #339, #337, .T. ) ;
#114 = EDGE_CURVE ( 'NONE', #236, #230, #303, .T. ) ;
#115 = EDGE_CURVE ( 'NONE', #226, #233, #317, .T. ) ;
#116 = EDGE_CURVE ( 'NONE', #225, #231, #334, .T. ) ;
#117 = EDGE_CURVE ( 'NONE', #237, #226, #333, .T. ) ;
#118 = EDGE_CURVE ( 'NONE', #228, #239, #336, .T. ) ;
#119 = EDGE_CURVE ( 'NONE', #231, #239, #305, .T. ) ;
#120 = EDGE_CURVE ( 'NONE', #230, #228, #346, .T. ) ;
#121 = EDGE_CURVE ( 'NONE', #230, #233, #329, .T. ) ;
#122 = EDGE_CURVE ( 'NONE', #235, #228, #388, .T. ) ;
#123 = CC_DESIGN_APPROVAL ( #124, ( #125 ) ) ;
#124 = APPROVAL ( #33, 'UNSPECIFIED' ) ;
#125 = PRODUCT_DEFINITION_FORMATION_WITH_SPECIFIED_SOURCE ( 'ANY', '', #140, .NOT_KNOWN. ) ;
#126 = CC_DESIGN_DATE_AND_TIME_ASSIGNMENT ( #373, #34, ( #130 ) ) ;
#127 = CC_DESIGN_PERSON_AND_ORGANIZATION_ASSIGNMENT ( #377, #37, ( #130 ) ) ;
#128 = CC_DESIGN_APPROVAL ( #129, ( #130 ) ) ;
#129 = APPROVAL ( #4, 'UNSPECIFIED' ) ;
#130 = PRODUCT_DEFINITION ( 'UNKNOWN', '', #125, #418 ) ;
#131 = CC_DESIGN_PERSON_AND_ORGANIZATION_ASSIGNMENT ( #385, #8, ( #140 ) ) ;
#132 = AXIS2_PLACEMENT_3D ( 'NONE', #28, #29, #10 ) ;
#133 = AXIS2_PLACEMENT_3D ( 'NONE', #66, #54, #59 ) ;
#134 =( GEOMETRIC_REPRESENTATION_CONTEXT ( 3 ) GLOBAL_UNCERTAINTY_ASSIGNED_CONTEXT ( ( #404 ) ) GLOBAL_UNIT_ASSIGNED_CONTEXT ( ( #19, #17, #16 ) ) REPRESENTATION_CONTEXT ( 'NONE', 'WORKASPACE' ) );
#135 = AXIS2_PLACEMENT_3D ( 'NONE', #26, #69, #27 ) ;
#136 = AXIS2_PLACEMENT_3D ( 'NONE', #62, #65, #64 ) ;
#137 = AXIS2_PLACEMENT_3D ( 'NONE', #31, #5, #53 ) ;
#138 = AXIS2_PLACEMENT_3D ( 'NONE', #72, #25, #24 ) ;
#139 = AXIS2_PLACEMENT_3D ( 'NONE', #12, #18, #71 ) ;
#140 = PRODUCT ( 'Êðûøêà íà îòâåòâèòåëü Ò-îáðàçíûé âåðòèêàëüíûé TDSR_38412', 'Êðûøêà íà îòâåòâèòåëü Ò-îáðàçíûé âåðòèêàëüíûé TDSR_38412', '', ( #9 ) ) ;
#141 = PERSON ( 'UNSPECIFIED', 'UNSPECIFIED', 'UNSPECIFIED', ('UNSPECIFIED'), ('UNSPECIFIED'), ('UNSPECIFIED') ) ;
#142 = CARTESIAN_POINT ( 'NONE',  ( -251.5999999999999900, 0.0000000000000000000, 0.0000000000000000000 ) ) ;
#143 = DIRECTION ( 'NONE',  ( -0.0000000000000000000, 1.000000000000000000, -0.0000000000000000000 ) ) ;
#144 = PLANE ( 'NONE',  #79 ) ;
#145 = CARTESIAN_POINT ( 'NONE',  ( -251.5999999999999900, -14.00000000000000000, 0.0000000000000000000 ) ) ;
#146 = CARTESIAN_POINT ( 'NONE',  ( 251.0000000000000000, -14.00000000000000000, 0.0000000000000000000 ) ) ;
#147 = CARTESIAN_POINT ( 'NONE',  ( -251.0000000000000000, 0.0000000000000000000, 460.0000000000000000 ) ) ;
#148 = DIRECTION ( 'NONE',  ( 0.0000000000000000000, 1.000000000000000000, 0.0000000000000000000 ) ) ;
#149 = CARTESIAN_POINT ( 'NONE',  ( 251.5999999999999900, 0.5999999999999999800, 460.0000000000000000 ) ) ;
#150 = CARTESIAN_POINT ( 'NONE',  ( -251.0000000000000000, 0.0000000000000000000, 0.0000000000000000000 ) ) ;
#151 = CARTESIAN_POINT ( 'NONE',  ( 251.5999999999999900, 0.5999999999999999800, 0.0000000000000000000 ) ) ;
#152 = CARTESIAN_POINT ( 'NONE',  ( -251.0000000000000000, 0.0000000000000000000, 460.0000000000000000 ) ) ;
#153 = CARTESIAN_POINT ( 'NONE',  ( -251.0000000000000000, -14.00000000000000000, 0.0000000000000000000 ) ) ;
#154 = CARTESIAN_POINT ( 'NONE',  ( 251.0000000000000000, -14.00000000000000000, 460.0000000000000000 ) ) ;
#155 = CARTESIAN_POINT ( 'NONE',  ( 251.0000000000000000, 0.0000000000000000000, 0.0000000000000000000 ) ) ;
#156 = CARTESIAN_POINT ( 'NONE',  ( -251.5999999999999900, -14.00000000000000000, 460.0000000000000000 ) ) ;
#157 = CARTESIAN_POINT ( 'NONE',  ( -251.0000000000000000, 0.0000000000000000000, 0.0000000000000000000 ) ) ;
#158 = CARTESIAN_POINT ( 'NONE',  ( 251.5999999999999900, -14.00000000000000000, 0.0000000000000000000 ) ) ;
#159 = CARTESIAN_POINT ( 'NONE',  ( -251.0000000000000000, -14.00000000000000000, 460.0000000000000000 ) ) ;
#160 = CARTESIAN_POINT ( 'NONE',  ( 251.5999999999999900, -14.00000000000000000, 460.0000000000000000 ) ) ;
#161 = DIRECTION ( 'NONE',  ( -0.0000000000000000000, -1.000000000000000000, 0.0000000000000000000 ) ) ;
#162 = CARTESIAN_POINT ( 'NONE',  ( 251.0000000000000000, 0.0000000000000000000, 460.0000000000000000 ) ) ;
#163 = CARTESIAN_POINT ( 'NONE',  ( 251.5999999999999900, 0.0000000000000000000, 0.0000000000000000000 ) ) ;
#164 = DIRECTION ( 'NONE',  ( -1.000000000000000000, 0.0000000000000000000, 0.0000000000000000000 ) ) ;
#165 = DIRECTION ( 'NONE',  ( -1.000000000000000000, 0.0000000000000000000, 0.0000000000000000000 ) ) ;
#166 = CARTESIAN_POINT ( 'NONE',  ( 251.5999999999999900, -14.00000000000000000, 460.0000000000000000 ) ) ;
#167 = DIRECTION ( 'NONE',  ( -0.0000000000000000000, -0.0000000000000000000, -1.000000000000000000 ) ) ;
#168 = CARTESIAN_POINT ( 'NONE',  ( 251.5999999999999900, -14.00000000000000000, 460.0000000000000000 ) ) ;
#169 = DIRECTION ( 'NONE',  ( 0.0000000000000000000, -1.000000000000000000, 0.0000000000000000000 ) ) ;
#170 = CARTESIAN_POINT ( 'NONE',  ( 251.0000000000000000, 0.0000000000000000000, 0.0000000000000000000 ) ) ;
#171 = DIRECTION ( 'NONE',  ( -0.0000000000000000000, -0.0000000000000000000, -1.000000000000000000 ) ) ;
#172 = DIRECTION ( 'NONE',  ( -1.000000000000000000, 0.0000000000000000000, 0.0000000000000000000 ) ) ;
#173 = CARTESIAN_POINT ( 'NONE',  ( 251.5999999999999900, -14.00000000000000000, 0.0000000000000000000 ) ) ;
#174 = DIRECTION ( 'NONE',  ( 1.000000000000000000, 0.0000000000000000000, 0.0000000000000000000 ) ) ;
#175 = CARTESIAN_POINT ( 'NONE',  ( 251.0000000000000000, 0.0000000000000000000, 460.0000000000000000 ) ) ;
#176 = DIRECTION ( 'NONE',  ( -0.0000000000000000000, -1.000000000000000000, 0.0000000000000000000 ) ) ;
#177 = DIRECTION ( 'NONE',  ( 0.0000000000000000000, 0.0000000000000000000, 1.000000000000000000 ) ) ;
#178 = DIRECTION ( 'NONE',  ( -0.0000000000000000000, -1.000000000000000000, -0.0000000000000000000 ) ) ;
#179 = CARTESIAN_POINT ( 'NONE',  ( -251.0000000000000000, -14.00000000000000000, 460.0000000000000000 ) ) ;
#180 = CARTESIAN_POINT ( 'NONE',  ( 1.734723475976807100E-015, 0.0000000000000000000, 14.99999999999999300 ) ) ;
#181 = DIRECTION ( 'NONE',  ( 1.000000000000000000, 0.0000000000000000000, 0.0000000000000000000 ) ) ;
#182 = CARTESIAN_POINT ( 'NONE',  ( -251.0000000000000000, 0.0000000000000000000, 0.0000000000000000000 ) ) ;
#183 = DIRECTION ( 'NONE',  ( 0.0000000000000000000, 1.000000000000000000, 0.0000000000000000000 ) ) ;
#184 = DIRECTION ( 'NONE',  ( 0.0000000000000000000, 0.0000000000000000000, 1.000000000000000000 ) ) ;
#185 = CARTESIAN_POINT ( 'NONE',  ( -251.5999999999999900, -14.00000000000000000, 460.0000000000000000 ) ) ;
#186 = DIRECTION ( 'NONE',  ( -0.0000000000000000000, -1.000000000000000000, -0.0000000000000000000 ) ) ;
#187 = CARTESIAN_POINT ( 'NONE',  ( -251.0000000000000000, 0.0000000000000000000, 460.0000000000000000 ) ) ;
#188 = CARTESIAN_POINT ( 'NONE',  ( 0.0000000000000000000, 0.0000000000000000000, 445.0000000000000600 ) ) ;
#189 = CARTESIAN_POINT ( 'NONE',  ( -251.5999999999999900, 0.5999999999999999800, 460.0000000000000000 ) ) ;
#190 = DIRECTION ( 'NONE',  ( 0.0000000000000000000, -1.000000000000000000, 0.0000000000000000000 ) ) ;
#191 = DIRECTION ( 'NONE',  ( -0.0000000000000000000, -0.0000000000000000000, -1.000000000000000000 ) ) ;
#192 = DIRECTION ( 'NONE',  ( -1.000000000000000000, 0.0000000000000000000, 0.0000000000000000000 ) ) ;
#193 = CARTESIAN_POINT ( 'NONE',  ( 251.5999999999999900, 0.0000000000000000000, 460.0000000000000000 ) ) ;
#194 = DIRECTION ( 'NONE',  ( -0.0000000000000000000, 1.000000000000000000, -0.0000000000000000000 ) ) ;
#195 = DIRECTION ( 'NONE',  ( -0.0000000000000000000, -0.0000000000000000000, -1.000000000000000000 ) ) ;
#196 = CARTESIAN_POINT ( 'NONE',  ( -251.0000000000000000, 0.0000000000000000000, 460.0000000000000000 ) ) ;
#197 = DIRECTION ( 'NONE',  ( 1.000000000000000000, 0.0000000000000000000, 0.0000000000000000000 ) ) ;
#198 = CARTESIAN_POINT ( 'NONE',  ( -251.0000000000000000, -14.00000000000000000, 0.0000000000000000000 ) ) ;
#199 = LINE ( 'NONE', #423, #324 ) ;
#200 = VECTOR ( 'NONE', #420, 1000.000000000000000 ) ;
#201 = LINE ( 'NONE', #428, #304 ) ;
#202 = LINE ( 'NONE', #427, #200 ) ;
#203 = LINE ( 'NONE', #437, #328 ) ;
#204 = VECTOR ( 'NONE', #419, 1000.000000000000000 ) ;
#205 = LINE ( 'NONE', #429, #204 ) ;
#206 = CIRCLE ( 'NONE', #93, 2.500000000000002200 ) ;
#207 = EDGE_LOOP ( 'NONE', ( #284 ) ) ;
#208 = EDGE_LOOP ( 'NONE', ( #263 ) ) ;
#209 = EDGE_LOOP ( 'NONE', ( #250, #296, #298, #249 ) ) ;
#210 = EDGE_LOOP ( 'NONE', ( #248 ) ) ;
#211 = EDGE_LOOP ( 'NONE', ( #293, #275, #276, #266 ) ) ;
#212 = EDGE_LOOP ( 'NONE', ( #261, #260, #255, #256 ) ) ;
#213 = EDGE_LOOP ( 'NONE', ( #272, #265, #268, #273 ) ) ;
#214 = EDGE_LOOP ( 'NONE', ( #242, #258, #262, #291, #288, #297, #300, #241 ) ) ;
#215 = EDGE_LOOP ( 'NONE', ( #243 ) ) ;
#216 = EDGE_LOOP ( 'NONE', ( #287, #279, #280, #286 ) ) ;
#217 = EDGE_LOOP ( 'NONE', ( #244 ) ) ;
#218 = EDGE_LOOP ( 'NONE', ( #247 ) ) ;
#219 = EDGE_LOOP ( 'NONE', ( #270, #257, #278, #245 ) ) ;
#220 = EDGE_LOOP ( 'NONE', ( #267, #269, #274, #289, #264, #259, #254, #290 ) ) ;
#221 = EDGE_LOOP ( 'NONE', ( #281, #283, #282, #285 ) ) ;
#222 = EDGE_LOOP ( 'NONE', ( #294, #299, #301, #277 ) ) ;
#223 = EDGE_LOOP ( 'NONE', ( #271 ) ) ;
#224 = EDGE_LOOP ( 'NONE', ( #246 ) ) ;
#225 = VERTEX_POINT ( 'NONE', #182 ) ;
#226 = VERTEX_POINT ( 'NONE', #162 ) ;
#227 = VERTEX_POINT ( 'NONE', #159 ) ;
#228 = VERTEX_POINT ( 'NONE', #158 ) ;
#229 = VERTEX_POINT ( 'NONE', #156 ) ;
#230 = VERTEX_POINT ( 'NONE', #160 ) ;
#231 = VERTEX_POINT ( 'NONE', #155 ) ;
#232 = VERTEX_POINT ( 'NONE', #189 ) ;
#233 = VERTEX_POINT ( 'NONE', #154 ) ;
#234 = VERTEX_POINT ( 'NONE', #153 ) ;
#235 = VERTEX_POINT ( 'NONE', #151 ) ;
#236 = VERTEX_POINT ( 'NONE', #149 ) ;
#237 = VERTEX_POINT ( 'NONE', #147 ) ;
#238 = LINE ( 'NONE', #422, #326 ) ;
#239 = VERTEX_POINT ( 'NONE', #146 ) ;
#240 = VERTEX_POINT ( 'NONE', #145 ) ;
#241 = ORIENTED_EDGE ( 'NONE', *, *, #118, .T. ) ;
#242 = ORIENTED_EDGE ( 'NONE', *, *, #119, .F. ) ;
#243 = ORIENTED_EDGE ( 'NONE', *, *, #112, .T. ) ;
#244 = ORIENTED_EDGE ( 'NONE', *, *, #98, .T. ) ;
#245 = ORIENTED_EDGE ( 'NONE', *, *, #97, .T. ) ;
#246 = ORIENTED_EDGE ( 'NONE', *, *, #96, .T. ) ;
#247 = ORIENTED_EDGE ( 'NONE', *, *, #113, .T. ) ;
#248 = ORIENTED_EDGE ( 'NONE', *, *, #98, .F. ) ;
#249 = ORIENTED_EDGE ( 'NONE', *, *, #95, .T. ) ;
#250 = ORIENTED_EDGE ( 'NONE', *, *, #99, .F. ) ;
#251 = VECTOR ( 'NONE', #161, 1000.000000000000000 ) ;
#252 = FACE_OUTER_BOUND ( 'NONE', #211, .T. ) ;
#253 = CLOSED_SHELL ( 'NONE', ( #410, #407, #406, #411, #412, #416, #405, #413, #415, #414, #409, #408 ) ) ;
#254 = ORIENTED_EDGE ( 'NONE', *, *, #111, .T. ) ;
#255 = ORIENTED_EDGE ( 'NONE', *, *, #108, .T. ) ;
#256 = ORIENTED_EDGE ( 'NONE', *, *, #104, .T. ) ;
#257 = ORIENTED_EDGE ( 'NONE', *, *, #101, .F. ) ;
#258 = ORIENTED_EDGE ( 'NONE', *, *, #116, .F. ) ;
#259 = ORIENTED_EDGE ( 'NONE', *, *, #108, .F. ) ;
#260 = ORIENTED_EDGE ( 'NONE', *, *, #107, .F. ) ;
#261 = ORIENTED_EDGE ( 'NONE', *, *, #106, .F. ) ;
#262 = ORIENTED_EDGE ( 'NONE', *, *, #109, .F. ) ;
#263 = ORIENTED_EDGE ( 'NONE', *, *, #112, .F. ) ;
#264 = ORIENTED_EDGE ( 'NONE', *, *, #105, .F. ) ;
#265 = ORIENTED_EDGE ( 'NONE', *, *, #97, .F. ) ;
#266 = ORIENTED_EDGE ( 'NONE', *, *, #107, .T. ) ;
#267 = ORIENTED_EDGE ( 'NONE', *, *, #115, .T. ) ;
#268 = ORIENTED_EDGE ( 'NONE', *, *, #117, .F. ) ;
#269 = ORIENTED_EDGE ( 'NONE', *, *, #121, .F. ) ;
#270 = ORIENTED_EDGE ( 'NONE', *, *, #119, .T. ) ;
#271 = ORIENTED_EDGE ( 'NONE', *, *, #113, .F. ) ;
#272 = ORIENTED_EDGE ( 'NONE', *, *, #116, .T. ) ;
#273 = ORIENTED_EDGE ( 'NONE', *, *, #110, .T. ) ;
#274 = ORIENTED_EDGE ( 'NONE', *, *, #114, .F. ) ;
#275 = ORIENTED_EDGE ( 'NONE', *, *, #110, .F. ) ;
#276 = ORIENTED_EDGE ( 'NONE', *, *, #111, .F. ) ;
#277 = ORIENTED_EDGE ( 'NONE', *, *, #100, .T. ) ;
#278 = ORIENTED_EDGE ( 'NONE', *, *, #115, .F. ) ;
#279 = ORIENTED_EDGE ( 'NONE', *, *, #120, .F. ) ;
#280 = ORIENTED_EDGE ( 'NONE', *, *, #121, .T. ) ;
#281 = ORIENTED_EDGE ( 'NONE', *, *, #122, .F. ) ;
#282 = ORIENTED_EDGE ( 'NONE', *, *, #114, .T. ) ;
#283 = ORIENTED_EDGE ( 'NONE', *, *, #95, .F. ) ;
#284 = ORIENTED_EDGE ( 'NONE', *, *, #96, .F. ) ;
#285 = ORIENTED_EDGE ( 'NONE', *, *, #120, .T. ) ;
#286 = ORIENTED_EDGE ( 'NONE', *, *, #101, .T. ) ;
#287 = ORIENTED_EDGE ( 'NONE', *, *, #118, .F. ) ;
#288 = ORIENTED_EDGE ( 'NONE', *, *, #103, .T. ) ;
#289 = ORIENTED_EDGE ( 'NONE', *, *, #102, .F. ) ;
#290 = ORIENTED_EDGE ( 'NONE', *, *, #117, .T. ) ;
#291 = ORIENTED_EDGE ( 'NONE', *, *, #106, .T. ) ;
#292 = VERTEX_POINT ( 'NONE', #61 ) ;
#293 = ORIENTED_EDGE ( 'NONE', *, *, #109, .T. ) ;
#294 = ORIENTED_EDGE ( 'NONE', *, *, #103, .F. ) ;
#295 = CIRCLE ( 'NONE', #94, 2.500000000000002200 ) ;
#296 = ORIENTED_EDGE ( 'NONE', *, *, #100, .F. ) ;
#297 = ORIENTED_EDGE ( 'NONE', *, *, #99, .T. ) ;
#298 = ORIENTED_EDGE ( 'NONE', *, *, #102, .T. ) ;
#299 = ORIENTED_EDGE ( 'NONE', *, *, #104, .F. ) ;
#300 = ORIENTED_EDGE ( 'NONE', *, *, #122, .T. ) ;
#301 = ORIENTED_EDGE ( 'NONE', *, *, #105, .T. ) ;
#302 = FACE_OUTER_BOUND ( 'NONE', #224, .T. ) ;
#303 = LINE ( 'NONE', #193, #332 ) ;
#304 = VECTOR ( 'NONE', #424, 1000.000000000000000 ) ;
#305 = LINE ( 'NONE', #170, #345 ) ;
#306 = VECTOR ( 'NONE', #191, 1000.000000000000000 ) ;
#307 = LINE ( 'NONE', #152, #318 ) ;
#308 = VECTOR ( 'NONE', #192, 1000.000000000000000 ) ;
#309 = LINE ( 'NONE', #179, #316 ) ;
#310 = VECTOR ( 'NONE', #148, 1000.000000000000000 ) ;
#311 = LINE ( 'NONE', #198, #308 ) ;
#312 = VECTOR ( 'NONE', #143, 1000.000000000000000 ) ;
#313 = LINE ( 'NONE', #196, #319 ) ;
#314 = VECTOR ( 'NONE', #165, 1000.000000000000000 ) ;
#315 = LINE ( 'NONE', #150, #312 ) ;
#316 = VECTOR ( 'NONE', #171, 1000.000000000000000 ) ;
#317 = LINE ( 'NONE', #175, #338 ) ;
#318 = VECTOR ( 'NONE', #194, 1000.000000000000000 ) ;
#319 = VECTOR ( 'NONE', #195, 1000.000000000000000 ) ;
#320 = CIRCLE ( 'NONE', #92, 2.500000000000002200 ) ;
#321 = LINE ( 'NONE', #430, #314 ) ;
#322 = VECTOR ( 'NONE', #183, 1000.000000000000000 ) ;
#323 = LINE ( 'NONE', #436, #310 ) ;
#324 = VECTOR ( 'NONE', #435, 1000.000000000000000 ) ;
#325 = LINE ( 'NONE', #142, #322 ) ;
#326 = VECTOR ( 'NONE', #197, 1000.000000000000000 ) ;
#327 = LINE ( 'NONE', #185, #306 ) ;
#328 = VECTOR ( 'NONE', #431, 1000.000000000000000 ) ;
#329 = LINE ( 'NONE', #166, #401 ) ;
#330 = VECTOR ( 'NONE', #167, 1000.000000000000000 ) ;
#331 = FACE_OUTER_BOUND ( 'NONE', #209, .T. ) ;
#332 = VECTOR ( 'NONE', #176, 1000.000000000000000 ) ;
#333 = LINE ( 'NONE', #187, #396 ) ;
#334 = LINE ( 'NONE', #157, #335 ) ;
#335 = VECTOR ( 'NONE', #181, 1000.000000000000000 ) ;
#336 = LINE ( 'NONE', #173, #340 ) ;
#337 = CIRCLE ( 'NONE', #91, 2.500000000000002200 ) ;
#338 = VECTOR ( 'NONE', #190, 1000.000000000000000 ) ;
#339 = VERTEX_POINT ( 'NONE', #57 ) ;
#340 = VECTOR ( 'NONE', #172, 1000.000000000000000 ) ;
#341 = FACE_OUTER_BOUND ( 'NONE', #216, .T. ) ;
#342 = FACE_BOUND ( 'NONE', #208, .T. ) ;
#343 = FACE_OUTER_BOUND ( 'NONE', #220, .T. ) ;
#344 = SHAPE_DEFINITION_REPRESENTATION ( #417, #402 ) ;
#345 = VECTOR ( 'NONE', #169, 1000.000000000000000 ) ;
#346 = LINE ( 'NONE', #168, #330 ) ;
#347 = FACE_OUTER_BOUND ( 'NONE', #213, .T. ) ;
#348 = FACE_BOUND ( 'NONE', #223, .T. ) ;
#349 = FACE_OUTER_BOUND ( 'NONE', #222, .T. ) ;
#350 = FACE_OUTER_BOUND ( 'NONE', #217, .T. ) ;
#351 = FACE_OUTER_BOUND ( 'NONE', #218, .T. ) ;
#352 = COORDINATED_UNIVERSAL_TIME_OFFSET ( 4, 0, .AHEAD. ) ;
#353 = LOCAL_TIME ( 12, 44, 32.00000000000000000, #352 ) ;
#354 = CALENDAR_DATE ( 2012, 9, 11 ) ;
#355 = DATE_AND_TIME ( #354, #353 ) ;
#356 = APPROVAL_DATE_TIME ( #355, #83 ) ;
#357 = LOCAL_TIME ( 12, 44, 32.00000000000000000, #366 ) ;
#358 = CALENDAR_DATE ( 2012, 9, 11 ) ;
#359 = DATE_AND_TIME ( #358, #357 ) ;
#360 = PERSON_AND_ORGANIZATION ( #141, #386 ) ;
#361 = APPROVAL_PERSON_ORGANIZATION ( #360, #83, #1 ) ;
#362 = APPROVAL_DATE_TIME ( #371, #124 ) ;
#363 = PERSON_AND_ORGANIZATION ( #141, #386 ) ;
#364 = PERSON_AND_ORGANIZATION ( #141, #386 ) ;
#365 = PERSON_AND_ORGANIZATION ( #141, #386 ) ;
#366 = COORDINATED_UNIVERSAL_TIME_OFFSET ( 4, 0, .AHEAD. ) ;
#367 = APPROVAL_PERSON_ORGANIZATION ( #372, #124, #42 ) ;
#368 = COORDINATED_UNIVERSAL_TIME_OFFSET ( 4, 0, .AHEAD. ) ;
#369 = LOCAL_TIME ( 12, 44, 32.00000000000000000, #368 ) ;
#370 = CALENDAR_DATE ( 2012, 9, 11 ) ;
#371 = DATE_AND_TIME ( #370, #369 ) ;
#372 = PERSON_AND_ORGANIZATION ( #141, #386 ) ;
#373 = DATE_AND_TIME ( #374, #375 ) ;
#374 = CALENDAR_DATE ( 2012, 9, 11 ) ;
#375 = LOCAL_TIME ( 12, 44, 32.00000000000000000, #376 ) ;
#376 = COORDINATED_UNIVERSAL_TIME_OFFSET ( 4, 0, .AHEAD. ) ;
#377 = PERSON_AND_ORGANIZATION ( #141, #386 ) ;
#378 = APPROVAL_DATE_TIME ( #379, #129 ) ;
#379 = DATE_AND_TIME ( #380, #381 ) ;
#380 = CALENDAR_DATE ( 2012, 9, 11 ) ;
#381 = LOCAL_TIME ( 12, 44, 32.00000000000000000, #382 ) ;
#382 = COORDINATED_UNIVERSAL_TIME_OFFSET ( 4, 0, .AHEAD. ) ;
#383 = APPROVAL_PERSON_ORGANIZATION ( #384, #129, #3 ) ;
#384 = PERSON_AND_ORGANIZATION ( #141, #386 ) ;
#385 = PERSON_AND_ORGANIZATION ( #141, #386 ) ;
#386 = ORGANIZATION ( 'UNSPECIFIED', 'UNSPECIFIED', '' ) ;
#387 = VERTEX_POINT ( 'NONE', #49 ) ;
#388 = LINE ( 'NONE', #163, #251 ) ;
#389 = VERTEX_POINT ( 'NONE', #55 ) ;
#390 = VERTEX_POINT ( 'NONE', #47 ) ;
#391 = FACE_OUTER_BOUND ( 'NONE', #212, .T. ) ;
#392 = FACE_BOUND ( 'NONE', #207, .T. ) ;
#393 = CYLINDRICAL_SURFACE ( 'NONE', #77, 2.500000000000002200 ) ;
#394 = FACE_BOUND ( 'NONE', #210, .T. ) ;
#395 = FACE_OUTER_BOUND ( 'NONE', #214, .T. ) ;
#396 = VECTOR ( 'NONE', #174, 1000.000000000000000 ) ;
#397 = CYLINDRICAL_SURFACE ( 'NONE', #78, 2.500000000000002200 ) ;
#398 = FACE_OUTER_BOUND ( 'NONE', #219, .T. ) ;
#399 = FACE_OUTER_BOUND ( 'NONE', #221, .T. ) ;
#400 = FACE_OUTER_BOUND ( 'NONE', #215, .T. ) ;
#401 = VECTOR ( 'NONE', #164, 1000.000000000000000 ) ;
#402 = ADVANCED_BREP_SHAPE_REPRESENTATION ( '¦¨v°úð ýð þªòõªòøªõû¹ T-þñ¨ð÷ývù òõ¨ªøúðû¹ývù TDSR_38412', ( #403, #132 ), #134 ) ;
#403 = MANIFOLD_SOLID_BREP ( 'Âûðåç-Âûòÿíóòü1', #253 ) ;
#404 = UNCERTAINTY_MEASURE_WITH_UNIT (LENGTH_MEASURE( 1.000000000000000100E-005 ), #19, 'distance_accuracy_value', 'NONE');
#405 = ADVANCED_FACE ( 'NONE', ( #252 ), #75, .F. ) ;
#406 = ADVANCED_FACE ( 'NONE', ( #399 ), #40, .T. ) ;
#407 = ADVANCED_FACE ( 'NONE', ( #341 ), #144, .T. ) ;
#408 = ADVANCED_FACE ( 'NONE', ( #302, #400 ), #397, .F. ) ;
#409 = ADVANCED_FACE ( 'NONE', ( #350, #351 ), #393, .F. ) ;
#410 = ADVANCED_FACE ( 'NONE', ( #398 ), #20, .F. ) ;
#411 = ADVANCED_FACE ( 'NONE', ( #392, #394, #331 ), #74, .T. ) ;
#412 = ADVANCED_FACE ( 'NONE', ( #349 ), #50, .T. ) ;
#413 = ADVANCED_FACE ( 'NONE', ( #342, #348, #347 ), #63, .F. ) ;
#414 = ADVANCED_FACE ( 'NONE', ( #395 ), #67, .T. ) ;
#415 = ADVANCED_FACE ( 'NONE', ( #343 ), #58, .F. ) ;
#416 = ADVANCED_FACE ( 'NONE', ( #391 ), #36, .T. ) ;
#417 = PRODUCT_DEFINITION_SHAPE ( 'NONE', 'NONE',  #130 ) ;
#418 = DESIGN_CONTEXT ( 'detailed design', #7, 'design' ) ;
#419 = DIRECTION ( 'NONE',  ( -0.0000000000000000000, -0.0000000000000000000, -1.000000000000000000 ) ) ;
#420 = DIRECTION ( 'NONE',  ( -0.0000000000000000000, -0.0000000000000000000, -1.000000000000000000 ) ) ;
#421 = CARTESIAN_POINT ( 'NONE',  ( 1.734723475976807100E-015, 0.5999999999999999800, 14.99999999999999300 ) ) ;
#422 = CARTESIAN_POINT ( 'NONE',  ( -251.0000000000000000, 0.5999999999999999800, 460.0000000000000000 ) ) ;
#423 = CARTESIAN_POINT ( 'NONE',  ( 251.0000000000000000, -14.00000000000000000, 460.0000000000000000 ) ) ;
#424 = DIRECTION ( 'NONE',  ( 1.000000000000000000, 0.0000000000000000000, 0.0000000000000000000 ) ) ;
#425 = DIRECTION ( 'NONE',  ( 0.0000000000000000000, 0.0000000000000000000, 1.000000000000000000 ) ) ;
#426 = DIRECTION ( 'NONE',  ( 0.0000000000000000000, 1.000000000000000000, 0.0000000000000000000 ) ) ;
#427 = CARTESIAN_POINT ( 'NONE',  ( 251.0000000000000000, 0.0000000000000000000, 460.0000000000000000 ) ) ;
#428 = CARTESIAN_POINT ( 'NONE',  ( -251.0000000000000000, 0.5999999999999999800, 0.0000000000000000000 ) ) ;
#429 = CARTESIAN_POINT ( 'NONE',  ( 251.5999999999999900, 0.5999999999999999800, 460.0000000000000000 ) ) ;
#430 = CARTESIAN_POINT ( 'NONE',  ( -251.0000000000000000, -14.00000000000000000, 460.0000000000000000 ) ) ;
#431 = DIRECTION ( 'NONE',  ( -0.0000000000000000000, -0.0000000000000000000, -1.000000000000000000 ) ) ;
#432 = CARTESIAN_POINT ( 'NONE',  ( 0.0000000000000000000, 0.5999999999999999800, 445.0000000000000600 ) ) ;
#433 = DIRECTION ( 'NONE',  ( -0.0000000000000000000, 1.000000000000000000, -0.0000000000000000000 ) ) ;
#434 = DIRECTION ( 'NONE',  ( 0.0000000000000000000, 0.0000000000000000000, -1.000000000000000000 ) ) ;
#435 = DIRECTION ( 'NONE',  ( -0.0000000000000000000, -0.0000000000000000000, -1.000000000000000000 ) ) ;
#436 = CARTESIAN_POINT ( 'NONE',  ( -251.5999999999999900, 0.0000000000000000000, 460.0000000000000000 ) ) ;
#437 = CARTESIAN_POINT ( 'NONE',  ( -251.5999999999999900, 0.5999999999999999800, 460.0000000000000000 ) ) ;
ENDSEC;
END-ISO-10303-21;
