ISO-10303-21;
HEADER;
FILE_DESCRIPTION (( 'STEP AP203' ),
    '1' );
FILE_NAME ('Êðûøêà íà îòâåòâèòåëü Ò-îáðàçíûé âåðòèêàëüíûé TDSA_38383.STEP',
    '2012-11-09T08:44:18',
    ( 'Àñååâ' ),
    ( '' ),
    'SwSTEP 2.0',
    'SolidWorks 2012',
    '' );
FILE_SCHEMA (( 'CONFIG_CONTROL_DESIGN' ));
ENDSEC;

DATA;
#1 = DIRECTION ( 'NONE',  ( -0.0000000000000000000, 1.000000000000000000, -0.0000000000000000000 ) ) ;
#2 = DIRECTION ( 'NONE',  ( -0.0000000000000000000, -0.0000000000000000000, -1.000000000000000000 ) ) ;
#3 = CARTESIAN_POINT ( 'NONE',  ( 41.60000000000000900, 0.5999999999999999800, 0.0000000000000000000 ) ) ;
#4 = CARTESIAN_POINT ( 'NONE',  ( -41.00000000000000000, 0.0000000000000000000, 460.0000000000000000 ) ) ;
#5 = CARTESIAN_POINT ( 'NONE',  ( -41.00000000000000000, 0.0000000000000000000, 0.0000000000000000000 ) ) ;
#6 = CARTESIAN_POINT ( 'NONE',  ( -41.60000000000000900, -14.00000000000000000, 460.0000000000000000 ) ) ;
#7 = CARTESIAN_POINT ( 'NONE',  ( -41.00000000000000000, 0.0000000000000000000, 460.0000000000000000 ) ) ;
#8 = CARTESIAN_POINT ( 'NONE',  ( 41.60000000000000900, -14.00000000000000000, 0.0000000000000000000 ) ) ;
#9 = CARTESIAN_POINT ( 'NONE',  ( -41.00000000000000000, 0.0000000000000000000, 0.0000000000000000000 ) ) ;
#10 = CARTESIAN_POINT ( 'NONE',  ( 41.00000000000000000, 0.0000000000000000000, 0.0000000000000000000 ) ) ;
#11 = CARTESIAN_POINT ( 'NONE',  ( 41.60000000000000900, -14.00000000000000000, 460.0000000000000000 ) ) ;
#12 = CARTESIAN_POINT ( 'NONE',  ( -41.60000000000000900, 0.5999999999999999800, 460.0000000000000000 ) ) ;
#13 = CARTESIAN_POINT ( 'NONE',  ( 41.00000000000000000, -14.00000000000000000, 0.0000000000000000000 ) ) ;
#14 = DIRECTION ( 'NONE',  ( -0.0000000000000000000, 1.000000000000000000, -0.0000000000000000000 ) ) ;
#15 = CARTESIAN_POINT ( 'NONE',  ( -41.60000000000000900, 0.5999999999999999800, 0.0000000000000000000 ) ) ;
#16 = CARTESIAN_POINT ( 'NONE',  ( -41.00000000000000000, 0.0000000000000000000, 0.0000000000000000000 ) ) ;
#17 = DIRECTION ( 'NONE',  ( 0.0000000000000000000, -1.000000000000000000, 0.0000000000000000000 ) ) ;
#18 = DIRECTION ( 'NONE',  ( -0.0000000000000000000, -0.0000000000000000000, -1.000000000000000000 ) ) ;
#19 = CARTESIAN_POINT ( 'NONE',  ( 41.00000000000000000, 0.0000000000000000000, 460.0000000000000000 ) ) ;
#20 = DIRECTION ( 'NONE',  ( -1.000000000000000000, 0.0000000000000000000, 0.0000000000000000000 ) ) ;
#21 = CARTESIAN_POINT ( 'NONE',  ( 41.00000000000000000, 0.0000000000000000000, 460.0000000000000000 ) ) ;
#22 = DIRECTION ( 'NONE',  ( -0.0000000000000000000, -0.0000000000000000000, -1.000000000000000000 ) ) ;
#23 = CARTESIAN_POINT ( 'NONE',  ( -41.00000000000000000, -14.00000000000000000, 460.0000000000000000 ) ) ;
#24 = DIRECTION ( 'NONE',  ( -0.0000000000000000000, -0.0000000000000000000, -1.000000000000000000 ) ) ;
#25 = CARTESIAN_POINT ( 'NONE',  ( 41.00000000000000000, -14.00000000000000000, 460.0000000000000000 ) ) ;
#26 = DIRECTION ( 'NONE',  ( 1.000000000000000000, 0.0000000000000000000, 0.0000000000000000000 ) ) ;
#27 = CARTESIAN_POINT ( 'NONE',  ( 41.00000000000000000, 0.0000000000000000000, 0.0000000000000000000 ) ) ;
#28 = DIRECTION ( 'NONE',  ( 1.000000000000000000, 0.0000000000000000000, 0.0000000000000000000 ) ) ;
#29 = DIRECTION ( 'NONE',  ( 0.0000000000000000000, 0.0000000000000000000, 1.000000000000000000 ) ) ;
#30 = DIRECTION ( 'NONE',  ( -0.0000000000000000000, -1.000000000000000000, -0.0000000000000000000 ) ) ;
#31 = CARTESIAN_POINT ( 'NONE',  ( 1.734723475976807100E-015, 0.0000000000000000000, 14.99999999999999300 ) ) ;
#32 = DIRECTION ( 'NONE',  ( -1.000000000000000000, 0.0000000000000000000, 0.0000000000000000000 ) ) ;
#33 = DIRECTION ( 'NONE',  ( 0.0000000000000000000, 0.0000000000000000000, 1.000000000000000000 ) ) ;
#34 = DIRECTION ( 'NONE',  ( -0.0000000000000000000, -1.000000000000000000, -0.0000000000000000000 ) ) ;
#35 = CARTESIAN_POINT ( 'NONE',  ( 0.0000000000000000000, 0.0000000000000000000, 445.0000000000000600 ) ) ;
#36 = CARTESIAN_POINT ( 'NONE',  ( 41.00000000000000000, -14.00000000000000000, 460.0000000000000000 ) ) ;
#37 = CARTESIAN_POINT ( 'NONE',  ( -41.00000000000000000, -14.00000000000000000, 0.0000000000000000000 ) ) ;
#38 = CARTESIAN_POINT ( 'NONE',  ( -41.00000000000000000, 0.0000000000000000000, 460.0000000000000000 ) ) ;
#39 = DIRECTION ( 'NONE',  ( 0.0000000000000000000, 1.000000000000000000, 0.0000000000000000000 ) ) ;
#40 = DIRECTION ( 'NONE',  ( -0.0000000000000000000, -0.0000000000000000000, -1.000000000000000000 ) ) ;
#41 = CARTESIAN_POINT ( 'NONE',  ( -41.00000000000000000, 0.0000000000000000000, 460.0000000000000000 ) ) ;
#42 = CARTESIAN_POINT ( 'NONE',  ( -41.60000000000000900, -14.00000000000000000, 460.0000000000000000 ) ) ;
#43 = DIRECTION ( 'NONE',  ( 0.0000000000000000000, 1.000000000000000000, 0.0000000000000000000 ) ) ;
#44 = CARTESIAN_POINT ( 'NONE',  ( -41.60000000000000900, 0.0000000000000000000, 0.0000000000000000000 ) ) ;
#45 = DIRECTION ( 'NONE',  ( 1.000000000000000000, 0.0000000000000000000, 0.0000000000000000000 ) ) ;
#46 = DIRECTION ( 'NONE',  ( -0.0000000000000000000, -0.0000000000000000000, -1.000000000000000000 ) ) ;
#47 = CARTESIAN_POINT ( 'NONE',  ( -41.00000000000000000, -14.00000000000000000, 460.0000000000000000 ) ) ;
#48 = CARTESIAN_POINT ( 'NONE',  ( -41.00000000000000000, 0.5999999999999999800, 460.0000000000000000 ) ) ;
#49 = DIRECTION ( 'NONE',  ( 1.000000000000000000, 0.0000000000000000000, 0.0000000000000000000 ) ) ;
#50 = DIRECTION ( 'NONE',  ( 0.0000000000000000000, 0.0000000000000000000, 1.000000000000000000 ) ) ;
#51 = DIRECTION ( 'NONE',  ( 0.0000000000000000000, 1.000000000000000000, 0.0000000000000000000 ) ) ;
#52 = CARTESIAN_POINT ( 'NONE',  ( 1.734723475976807100E-015, 0.5999999999999999800, 14.99999999999999300 ) ) ;
#53 = DIRECTION ( 'NONE',  ( 0.0000000000000000000, 0.0000000000000000000, -1.000000000000000000 ) ) ;
#54 = DIRECTION ( 'NONE',  ( -0.0000000000000000000, 1.000000000000000000, -0.0000000000000000000 ) ) ;
#55 = CARTESIAN_POINT ( 'NONE',  ( 0.0000000000000000000, 0.5999999999999999800, 445.0000000000000600 ) ) ;
#56 = CARTESIAN_POINT ( 'NONE',  ( -41.60000000000000900, 0.0000000000000000000, 460.0000000000000000 ) ) ;
#57 = CARTESIAN_POINT ( 'NONE',  ( -41.60000000000000900, 0.5999999999999999800, 460.0000000000000000 ) ) ;
#58 = DIRECTION ( 'NONE',  ( -0.0000000000000000000, -1.000000000000000000, 0.0000000000000000000 ) ) ;
#59 = DIRECTION ( 'NONE',  ( -0.0000000000000000000, -0.0000000000000000000, -1.000000000000000000 ) ) ;
#60 = CARTESIAN_POINT ( 'NONE',  ( -41.00000000000000000, 0.5999999999999999800, 0.0000000000000000000 ) ) ;
#61 = CARTESIAN_POINT ( 'NONE',  ( 41.60000000000000900, 0.5999999999999999800, 460.0000000000000000 ) ) ;
#62 = DIRECTION ( 'NONE',  ( -0.0000000000000000000, -1.000000000000000000, 0.0000000000000000000 ) ) ;
#63 = DIRECTION ( 'NONE',  ( -1.000000000000000000, 0.0000000000000000000, 0.0000000000000000000 ) ) ;
#64 = CARTESIAN_POINT ( 'NONE',  ( 41.60000000000000900, 0.0000000000000000000, 460.0000000000000000 ) ) ;
#65 = DIRECTION ( 'NONE',  ( 0.0000000000000000000, -1.000000000000000000, 0.0000000000000000000 ) ) ;
#66 = CARTESIAN_POINT ( 'NONE',  ( 41.60000000000000900, 0.0000000000000000000, 0.0000000000000000000 ) ) ;
#67 = DIRECTION ( 'NONE',  ( -1.000000000000000000, 0.0000000000000000000, 0.0000000000000000000 ) ) ;
#68 = CARTESIAN_POINT ( 'NONE',  ( 41.60000000000000900, -14.00000000000000000, 0.0000000000000000000 ) ) ;
#69 = CARTESIAN_POINT ( 'NONE',  ( 41.60000000000000900, -14.00000000000000000, 460.0000000000000000 ) ) ;
#70 = CARTESIAN_POINT ( 'NONE',  ( 41.00000000000000000, 0.0000000000000000000, 460.0000000000000000 ) ) ;
#71 = CARTESIAN_POINT ( 'NONE',  ( 41.60000000000000900, -14.00000000000000000, 460.0000000000000000 ) ) ;
#72 = DIRECTION ( 'NONE',  ( -1.000000000000000000, 0.0000000000000000000, 0.0000000000000000000 ) ) ;
#73 = DIRECTION ( 'NONE',  ( -0.0000000000000000000, 0.0000000000000000000, -1.000000000000000000 ) ) ;
#74 = PLANE ( 'NONE',  #149 ) ;
#75 = DIRECTION ( 'NONE',  ( 0.0000000000000000000, -0.0000000000000000000, -1.000000000000000000 ) ) ;
#76 = DIRECTION ( 'NONE',  ( 0.0000000000000000000, -1.000000000000000000, 0.0000000000000000000 ) ) ;
#77 = DIRECTION ( 'NONE',  ( -0.0000000000000000000, -0.0000000000000000000, -1.000000000000000000 ) ) ;
#78 = PLANE ( 'NONE',  #133 ) ;
#79 = DIRECTION ( 'NONE',  ( -1.000000000000000000, 0.0000000000000000000, 0.0000000000000000000 ) ) ;
#80 = DIRECTION ( 'NONE',  ( -0.0000000000000000000, 0.0000000000000000000, -1.000000000000000000 ) ) ;
#81 = CARTESIAN_POINT ( 'NONE',  ( 0.0000000000000000000, 0.0000000000000000000, 460.0000000000000000 ) ) ;
#82 = CARTESIAN_POINT ( 'NONE',  ( 41.60000000000000900, -14.00000000000000000, 460.0000000000000000 ) ) ;
#83 = PLANE ( 'NONE',  #131 ) ;
#84 = CARTESIAN_POINT ( 'NONE',  ( 0.0000000000000000000, 0.0000000000000000000, 0.0000000000000000000 ) ) ;
#85 = DIRECTION ( 'NONE',  ( -0.0000000000000000000, 1.000000000000000000, -0.0000000000000000000 ) ) ;
#86 = CARTESIAN_POINT ( 'NONE',  ( 0.0000000000000000000, -14.00099999999999900, 445.0000000000000600 ) ) ;
#87 = DIRECTION ( 'NONE',  ( 0.0000000000000000000, 0.0000000000000000000, 1.000000000000000000 ) ) ;
#88 = CARTESIAN_POINT ( 'NONE',  ( 1.734723475976807100E-015, -14.00099999999999900, 14.99999999999999300 ) ) ;
#89 = DIRECTION ( 'NONE',  ( 0.0000000000000000000, -0.0000000000000000000, 1.000000000000000000 ) ) ;
#90 = DIRECTION ( 'NONE',  ( 0.0000000000000000000, 0.0000000000000000000, 1.000000000000000000 ) ) ;
#91 = PLANE ( 'NONE',  #170 ) ;
#92 = DIRECTION ( 'NONE',  ( -0.0000000000000000000, 1.000000000000000000, -0.0000000000000000000 ) ) ;
#93 = CARTESIAN_POINT ( 'NONE',  ( -41.00000000000000000, 0.5999999999999999800, 460.0000000000000000 ) ) ;
#94 = DIRECTION ( 'NONE',  ( -0.0000000000000000000, 0.0000000000000000000, -1.000000000000000000 ) ) ;
#95 = DIRECTION ( 'NONE',  ( 1.000000000000000000, 0.0000000000000000000, -0.0000000000000000000 ) ) ;
#96 = PLANE ( 'NONE',  #190 ) ;
#97 = DIRECTION ( 'NONE',  ( 0.0000000000000000000, -0.0000000000000000000, -1.000000000000000000 ) ) ;
#98 = DIRECTION ( 'NONE',  ( 0.0000000000000000000, -1.000000000000000000, 0.0000000000000000000 ) ) ;
#99 = DIRECTION ( 'NONE',  ( 0.0000000000000000000, 1.000000000000000000, 0.0000000000000000000 ) ) ;
#100 = PLANE ( 'NONE',  #134 ) ;
#101 = DIRECTION ( 'NONE',  ( 0.0000000000000000000, 0.0000000000000000000, 1.000000000000000000 ) ) ;
#102 = DIRECTION ( 'NONE',  ( -1.000000000000000000, 0.0000000000000000000, 0.0000000000000000000 ) ) ;
#103 = CARTESIAN_POINT ( 'NONE',  ( 41.60000000000000900, 0.0000000000000000000, 460.0000000000000000 ) ) ;
#104 = PLANE ( 'NONE',  #135 ) ;
#105 = DIRECTION ( 'NONE',  ( 0.0000000000000000000, -0.0000000000000000000, 1.000000000000000000 ) ) ;
#106 = CARTESIAN_POINT ( 'NONE',  ( -41.60000000000000900, 0.0000000000000000000, 460.0000000000000000 ) ) ;
#107 = PLANE ( 'NONE',  #136 ) ;
#108 = CARTESIAN_POINT ( 'NONE',  ( -41.00000000000000000, -14.00000000000000000, 460.0000000000000000 ) ) ;
#109 = CARTESIAN_POINT ( 'NONE',  ( -41.00000000000000000, 0.0000000000000000000, 460.0000000000000000 ) ) ;
#110 = DIRECTION ( 'NONE',  ( 0.0000000000000000000, 0.0000000000000000000, 1.000000000000000000 ) ) ;
#111 = DIRECTION ( 'NONE',  ( -1.000000000000000000, 0.0000000000000000000, 0.0000000000000000000 ) ) ;
#112 = CARTESIAN_POINT ( 'NONE',  ( -41.00000000000000000, 0.0000000000000000000, 460.0000000000000000 ) ) ;
#113 = PLANE ( 'NONE',  #138 ) ;
#114 = CARTESIAN_POINT ( 'NONE',  ( 41.00000000000000000, 0.0000000000000000000, 460.0000000000000000 ) ) ;
#115 = DIRECTION ( 'NONE',  ( 1.000000000000000000, 0.0000000000000000000, -0.0000000000000000000 ) ) ;
#116 = PLANE ( 'NONE',  #137 ) ;
#117 = DIRECTION ( 'NONE',  ( 0.0000000000000000000, 1.000000000000000000, 0.0000000000000000000 ) ) ;
#118 = DIRECTION ( 'NONE',  ( -0.0000000000000000000, 0.0000000000000000000, -1.000000000000000000 ) ) ;
#119 = ADVANCED_FACE ( 'NONE', ( #392 ), #113, .F. ) ;
#120 = ADVANCED_FACE ( 'NONE', ( #394 ), #116, .F. ) ;
#121 = ADVANCED_FACE ( 'NONE', ( #349, #347, #351 ), #107, .F. ) ;
#122 = ADVANCED_FACE ( 'NONE', ( #346 ), #104, .T. ) ;
#123 = ADVANCED_FACE ( 'NONE', ( #350 ), #100, .T. ) ;
#124 = ADVANCED_FACE ( 'NONE', ( #358 ), #96, .T. ) ;
#125 = ADVANCED_FACE ( 'NONE', ( #308, #305, #307 ), #91, .T. ) ;
#126 = ADVANCED_FACE ( 'NONE', ( #306, #302 ), #300, .F. ) ;
#127 = ADVANCED_FACE ( 'NONE', ( #304, #299 ), #297, .F. ) ;
#128 = ADVANCED_FACE ( 'NONE', ( #301 ), #83, .T. ) ;
#129 = ADVANCED_FACE ( 'NONE', ( #348 ), #78, .T. ) ;
#130 = ADVANCED_FACE ( 'NONE', ( #303 ), #74, .F. ) ;
#131 = AXIS2_PLACEMENT_3D ( 'NONE', #84, #80, #79 ) ;
#132 = AXIS2_PLACEMENT_3D ( 'NONE', #86, #85, #87 ) ;
#133 = AXIS2_PLACEMENT_3D ( 'NONE', #82, #76, #75 ) ;
#134 = AXIS2_PLACEMENT_3D ( 'NONE', #108, #98, #97 ) ;
#135 = AXIS2_PLACEMENT_3D ( 'NONE', #106, #102, #101 ) ;
#136 = AXIS2_PLACEMENT_3D ( 'NONE', #109, #117, #105 ) ;
#137 = AXIS2_PLACEMENT_3D ( 'NONE', #112, #111, #110 ) ;
#138 = AXIS2_PLACEMENT_3D ( 'NONE', #114, #115, #118 ) ;
#139 = EDGE_CURVE ( 'NONE', #203, #200, #294, .T. ) ;
#140 = EDGE_CURVE ( 'NONE', #198, #203, #296, .T. ) ;
#141 = EDGE_CURVE ( 'NONE', #195, #202, #298, .T. ) ;
#142 = EDGE_CURVE ( 'NONE', #198, #202, #293, .T. ) ;
#143 = EDGE_CURVE ( 'NONE', #345, #203, #291, .T. ) ;
#144 = AXIS2_PLACEMENT_3D ( 'NONE', #55, #54, #53 ) ;
#145 =( GEOMETRIC_REPRESENTATION_CONTEXT ( 3 ) GLOBAL_UNCERTAINTY_ASSIGNED_CONTEXT ( ( #402 ) ) GLOBAL_UNIT_ASSIGNED_CONTEXT ( ( #429, #430, #431 ) ) REPRESENTATION_CONTEXT ( 'NONE', 'WORKASPACE' ) );
#146 = AXIS2_PLACEMENT_3D ( 'NONE', #31, #30, #29 ) ;
#147 = AXIS2_PLACEMENT_3D ( 'NONE', #35, #34, #33 ) ;
#148 = AXIS2_PLACEMENT_3D ( 'NONE', #52, #51, #50 ) ;
#149 = AXIS2_PLACEMENT_3D ( 'NONE', #81, #73, #72 ) ;
#150 = EDGE_CURVE ( 'NONE', #352, #345, #287, .T. ) ;
#151 = EDGE_CURVE ( 'NONE', #352, #198, #289, .T. ) ;
#152 = EDGE_CURVE ( 'NONE', #242, #242, #283, .T. ) ;
#153 = EDGE_CURVE ( 'NONE', #244, #244, #279, .T. ) ;
#154 = EDGE_CURVE ( 'NONE', #196, #345, #281, .T. ) ;
#155 = EDGE_CURVE ( 'NONE', #197, #196, #280, .T. ) ;
#156 = EDGE_CURVE ( 'NONE', #197, #352, #285, .T. ) ;
#157 = EDGE_CURVE ( 'NONE', #344, #196, #275, .T. ) ;
#158 = EDGE_CURVE ( 'NONE', #204, #344, #273, .T. ) ;
#159 = EDGE_CURVE ( 'NONE', #204, #197, #276, .T. ) ;
#160 = EDGE_CURVE ( 'NONE', #353, #344, #269, .T. ) ;
#161 = EDGE_CURVE ( 'NONE', #357, #353, #267, .T. ) ;
#162 = EDGE_CURVE ( 'NONE', #357, #204, #271, .T. ) ;
#163 = EDGE_CURVE ( 'NONE', #353, #201, #263, .T. ) ;
#164 = EDGE_CURVE ( 'NONE', #205, #201, #261, .T. ) ;
#165 = EDGE_CURVE ( 'NONE', #357, #205, #265, .T. ) ;
#166 = AXIS2_PLACEMENT_3D ( 'NONE', #88, #92, #90 ) ;
#167 = EDGE_CURVE ( 'NONE', #246, #246, #257, .T. ) ;
#168 = EDGE_CURVE ( 'NONE', #243, #243, #253, .T. ) ;
#169 = EDGE_CURVE ( 'NONE', #201, #199, #255, .T. ) ;
#170 = AXIS2_PLACEMENT_3D ( 'NONE', #93, #99, #89 ) ;
#171 = EDGE_CURVE ( 'NONE', #205, #195, #254, .T. ) ;
#172 = PRODUCT_DEFINITION ( 'UNKNOWN', '', #191, #403 ) ;
#173 = APPROVAL ( #406, 'UNSPECIFIED' ) ;
#174 = CC_DESIGN_PERSON_AND_ORGANIZATION_ASSIGNMENT ( #239, #433, ( #398 ) ) ;
#175 = AXIS2_PLACEMENT_3D ( 'NONE', #420, #428, #435 ) ;
#176 = EDGE_CURVE ( 'NONE', #202, #200, #250, .T. ) ;
#177 = EDGE_CURVE ( 'NONE', #195, #199, #249, .T. ) ;
#178 = EDGE_CURVE ( 'NONE', #199, #200, #259, .T. ) ;
#179 = APPROVAL ( #410, 'UNSPECIFIED' ) ;
#180 = SECURITY_CLASSIFICATION ( '', '', #414 ) ;
#181 = PRODUCT_RELATED_PRODUCT_CATEGORY ( 'detail', '', ( #398 ) ) ;
#182 = APPROVAL ( #417, 'UNSPECIFIED' ) ;
#183 = CC_DESIGN_SECURITY_CLASSIFICATION ( #180, ( #191 ) ) ;
#184 = CC_DESIGN_PERSON_AND_ORGANIZATION_ASSIGNMENT ( #217, #415, ( #180 ) ) ;
#185 = CC_DESIGN_DATE_AND_TIME_ASSIGNMENT ( #213, #416, ( #180 ) ) ;
#186 = CC_DESIGN_APPROVAL ( #179, ( #191 ) ) ;
#187 = CC_DESIGN_PERSON_AND_ORGANIZATION_ASSIGNMENT ( #219, #413, ( #191 ) ) ;
#188 = CC_DESIGN_PERSON_AND_ORGANIZATION_ASSIGNMENT ( #218, #411, ( #191 ) ) ;
#189 = CC_DESIGN_APPROVAL ( #182, ( #180 ) ) ;
#190 = AXIS2_PLACEMENT_3D ( 'NONE', #103, #95, #94 ) ;
#191 = PRODUCT_DEFINITION_FORMATION_WITH_SPECIFIED_SOURCE ( 'ANY', '', #398, .NOT_KNOWN. ) ;
#192 = CC_DESIGN_PERSON_AND_ORGANIZATION_ASSIGNMENT ( #231, #408, ( #172 ) ) ;
#193 = CC_DESIGN_APPROVAL ( #173, ( #172 ) ) ;
#194 = CC_DESIGN_DATE_AND_TIME_ASSIGNMENT ( #227, #409, ( #172 ) ) ;
#195 = VERTEX_POINT ( 'NONE', #19 ) ;
#196 = VERTEX_POINT ( 'NONE', #15 ) ;
#197 = VERTEX_POINT ( 'NONE', #12 ) ;
#198 = VERTEX_POINT ( 'NONE', #11 ) ;
#199 = VERTEX_POINT ( 'NONE', #10 ) ;
#200 = VERTEX_POINT ( 'NONE', #13 ) ;
#201 = VERTEX_POINT ( 'NONE', #9 ) ;
#202 = VERTEX_POINT ( 'NONE', #36 ) ;
#203 = VERTEX_POINT ( 'NONE', #8 ) ;
#204 = VERTEX_POINT ( 'NONE', #6 ) ;
#205 = VERTEX_POINT ( 'NONE', #4 ) ;
#206 = APPROVAL_DATE_TIME ( #207, #182 ) ;
#207 = DATE_AND_TIME ( #208, #209 ) ;
#208 = CALENDAR_DATE ( 2012, 9, 11 ) ;
#209 = LOCAL_TIME ( 12, 44, 18.00000000000000000, #210 ) ;
#210 = COORDINATED_UNIVERSAL_TIME_OFFSET ( 4, 0, .AHEAD. ) ;
#211 = APPROVAL_PERSON_ORGANIZATION ( #212, #182, #418 ) ;
#212 = PERSON_AND_ORGANIZATION ( #399, #240 ) ;
#213 = DATE_AND_TIME ( #214, #215 ) ;
#214 = CALENDAR_DATE ( 2012, 9, 11 ) ;
#215 = LOCAL_TIME ( 12, 44, 18.00000000000000000, #216 ) ;
#216 = COORDINATED_UNIVERSAL_TIME_OFFSET ( 4, 0, .AHEAD. ) ;
#217 = PERSON_AND_ORGANIZATION ( #399, #240 ) ;
#218 = PERSON_AND_ORGANIZATION ( #399, #240 ) ;
#219 = PERSON_AND_ORGANIZATION ( #399, #240 ) ;
#220 = APPROVAL_DATE_TIME ( #221, #179 ) ;
#221 = DATE_AND_TIME ( #222, #223 ) ;
#222 = CALENDAR_DATE ( 2012, 9, 11 ) ;
#223 = LOCAL_TIME ( 12, 44, 18.00000000000000000, #224 ) ;
#224 = COORDINATED_UNIVERSAL_TIME_OFFSET ( 4, 0, .AHEAD. ) ;
#225 = APPROVAL_PERSON_ORGANIZATION ( #226, #179, #412 ) ;
#226 = PERSON_AND_ORGANIZATION ( #399, #240 ) ;
#227 = DATE_AND_TIME ( #228, #229 ) ;
#228 = CALENDAR_DATE ( 2012, 9, 11 ) ;
#229 = LOCAL_TIME ( 12, 44, 18.00000000000000000, #230 ) ;
#230 = COORDINATED_UNIVERSAL_TIME_OFFSET ( 4, 0, .AHEAD. ) ;
#231 = PERSON_AND_ORGANIZATION ( #399, #240 ) ;
#232 = APPROVAL_DATE_TIME ( #233, #173 ) ;
#233 = DATE_AND_TIME ( #234, #235 ) ;
#234 = CALENDAR_DATE ( 2012, 9, 11 ) ;
#235 = LOCAL_TIME ( 12, 44, 18.00000000000000000, #236 ) ;
#236 = COORDINATED_UNIVERSAL_TIME_OFFSET ( 4, 0, .AHEAD. ) ;
#237 = APPROVAL_PERSON_ORGANIZATION ( #238, #173, #407 ) ;
#238 = PERSON_AND_ORGANIZATION ( #399, #240 ) ;
#239 = PERSON_AND_ORGANIZATION ( #399, #240 ) ;
#240 = ORGANIZATION ( 'UNSPECIFIED', 'UNSPECIFIED', '' ) ;
#241 = SHAPE_DEFINITION_REPRESENTATION ( #404, #401 ) ;
#242 = VERTEX_POINT ( 'NONE', #424 ) ;
#243 = VERTEX_POINT ( 'NONE', #427 ) ;
#244 = VERTEX_POINT ( 'NONE', #421 ) ;
#245 = VECTOR ( 'NONE', #17, 1000.000000000000000 ) ;
#246 = VERTEX_POINT ( 'NONE', #426 ) ;
#247 = VECTOR ( 'NONE', #18, 1000.000000000000000 ) ;
#248 = VECTOR ( 'NONE', #24, 1000.000000000000000 ) ;
#249 = LINE ( 'NONE', #21, #247 ) ;
#250 = LINE ( 'NONE', #25, #248 ) ;
#251 = VECTOR ( 'NONE', #28, 1000.000000000000000 ) ;
#252 = VECTOR ( 'NONE', #26, 1000.000000000000000 ) ;
#253 = CIRCLE ( 'NONE', #146, 2.500000000000002200 ) ;
#254 = LINE ( 'NONE', #38, #252 ) ;
#255 = LINE ( 'NONE', #5, #251 ) ;
#256 = VECTOR ( 'NONE', #1, 1000.000000000000000 ) ;
#257 = CIRCLE ( 'NONE', #147, 2.500000000000002200 ) ;
#258 = VECTOR ( 'NONE', #2, 1000.000000000000000 ) ;
#259 = LINE ( 'NONE', #27, #245 ) ;
#260 = VECTOR ( 'NONE', #14, 1000.000000000000000 ) ;
#261 = LINE ( 'NONE', #7, #258 ) ;
#262 = VECTOR ( 'NONE', #20, 1000.000000000000000 ) ;
#263 = LINE ( 'NONE', #16, #260 ) ;
#264 = VECTOR ( 'NONE', #22, 1000.000000000000000 ) ;
#265 = LINE ( 'NONE', #41, #256 ) ;
#266 = VECTOR ( 'NONE', #32, 1000.000000000000000 ) ;
#267 = LINE ( 'NONE', #23, #264 ) ;
#268 = VECTOR ( 'NONE', #39, 1000.000000000000000 ) ;
#269 = LINE ( 'NONE', #37, #266 ) ;
#270 = VECTOR ( 'NONE', #40, 1000.000000000000000 ) ;
#271 = LINE ( 'NONE', #47, #262 ) ;
#272 = VECTOR ( 'NONE', #43, 1000.000000000000000 ) ;
#273 = LINE ( 'NONE', #42, #270 ) ;
#274 = VECTOR ( 'NONE', #45, 1000.000000000000000 ) ;
#275 = LINE ( 'NONE', #44, #272 ) ;
#276 = LINE ( 'NONE', #56, #268 ) ;
#277 = VECTOR ( 'NONE', #49, 1000.000000000000000 ) ;
#278 = VECTOR ( 'NONE', #46, 1000.000000000000000 ) ;
#279 = CIRCLE ( 'NONE', #148, 2.500000000000002200 ) ;
#280 = LINE ( 'NONE', #57, #278 ) ;
#281 = LINE ( 'NONE', #60, #277 ) ;
#282 = VECTOR ( 'NONE', #58, 1000.000000000000000 ) ;
#283 = CIRCLE ( 'NONE', #144, 2.500000000000002200 ) ;
#284 = VECTOR ( 'NONE', #59, 1000.000000000000000 ) ;
#285 = LINE ( 'NONE', #48, #274 ) ;
#286 = VECTOR ( 'NONE', #62, 1000.000000000000000 ) ;
#287 = LINE ( 'NONE', #61, #284 ) ;
#288 = VECTOR ( 'NONE', #63, 1000.000000000000000 ) ;
#289 = LINE ( 'NONE', #64, #282 ) ;
#290 = VECTOR ( 'NONE', #65, 1000.000000000000000 ) ;
#291 = LINE ( 'NONE', #66, #286 ) ;
#292 = VECTOR ( 'NONE', #77, 1000.000000000000000 ) ;
#293 = LINE ( 'NONE', #69, #288 ) ;
#294 = LINE ( 'NONE', #68, #295 ) ;
#295 = VECTOR ( 'NONE', #67, 1000.000000000000000 ) ;
#296 = LINE ( 'NONE', #71, #292 ) ;
#297 = CYLINDRICAL_SURFACE ( 'NONE', #132, 2.500000000000002200 ) ;
#298 = LINE ( 'NONE', #70, #290 ) ;
#299 = FACE_OUTER_BOUND ( 'NONE', #391, .T. ) ;
#300 = CYLINDRICAL_SURFACE ( 'NONE', #166, 2.500000000000002200 ) ;
#301 = FACE_OUTER_BOUND ( 'NONE', #387, .T. ) ;
#302 = FACE_OUTER_BOUND ( 'NONE', #393, .T. ) ;
#303 = FACE_OUTER_BOUND ( 'NONE', #380, .T. ) ;
#304 = FACE_OUTER_BOUND ( 'NONE', #390, .T. ) ;
#305 = FACE_BOUND ( 'NONE', #382, .T. ) ;
#306 = FACE_OUTER_BOUND ( 'NONE', #386, .T. ) ;
#307 = FACE_OUTER_BOUND ( 'NONE', #385, .T. ) ;
#308 = FACE_BOUND ( 'NONE', #389, .T. ) ;
#309 = ORIENTED_EDGE ( 'NONE', *, *, #140, .F. ) ;
#310 = ORIENTED_EDGE ( 'NONE', *, *, #139, .F. ) ;
#311 = ORIENTED_EDGE ( 'NONE', *, *, #169, .T. ) ;
#312 = CLOSED_SHELL ( 'NONE', ( #119, #129, #124, #125, #122, #123, #120, #121, #130, #128, #126, #127 ) ) ;
#313 = ORIENTED_EDGE ( 'NONE', *, *, #167, .F. ) ;
#314 = ORIENTED_EDGE ( 'NONE', *, *, #158, .T. ) ;
#315 = ORIENTED_EDGE ( 'NONE', *, *, #165, .F. ) ;
#316 = ORIENTED_EDGE ( 'NONE', *, *, #167, .T. ) ;
#317 = ORIENTED_EDGE ( 'NONE', *, *, #161, .F. ) ;
#318 = ORIENTED_EDGE ( 'NONE', *, *, #160, .F. ) ;
#319 = ORIENTED_EDGE ( 'NONE', *, *, #168, .F. ) ;
#320 = ORIENTED_EDGE ( 'NONE', *, *, #162, .T. ) ;
#321 = ORIENTED_EDGE ( 'NONE', *, *, #141, .F. ) ;
#322 = ORIENTED_EDGE ( 'NONE', *, *, #178, .T. ) ;
#323 = ORIENTED_EDGE ( 'NONE', *, *, #177, .T. ) ;
#324 = ORIENTED_EDGE ( 'NONE', *, *, #139, .T. ) ;
#325 = ORIENTED_EDGE ( 'NONE', *, *, #153, .T. ) ;
#326 = ORIENTED_EDGE ( 'NONE', *, *, #163, .T. ) ;
#327 = ORIENTED_EDGE ( 'NONE', *, *, #155, .T. ) ;
#328 = ORIENTED_EDGE ( 'NONE', *, *, #154, .T. ) ;
#329 = ORIENTED_EDGE ( 'NONE', *, *, #157, .T. ) ;
#330 = ORIENTED_EDGE ( 'NONE', *, *, #160, .T. ) ;
#331 = ORIENTED_EDGE ( 'NONE', *, *, #169, .F. ) ;
#332 = ORIENTED_EDGE ( 'NONE', *, *, #163, .F. ) ;
#333 = ORIENTED_EDGE ( 'NONE', *, *, #176, .F. ) ;
#334 = ORIENTED_EDGE ( 'NONE', *, *, #171, .T. ) ;
#335 = ORIENTED_EDGE ( 'NONE', *, *, #178, .F. ) ;
#336 = ORIENTED_EDGE ( 'NONE', *, *, #152, .T. ) ;
#337 = ORIENTED_EDGE ( 'NONE', *, *, #165, .T. ) ;
#338 = ORIENTED_EDGE ( 'NONE', *, *, #171, .F. ) ;
#339 = ORIENTED_EDGE ( 'NONE', *, *, #141, .T. ) ;
#340 = ORIENTED_EDGE ( 'NONE', *, *, #142, .F. ) ;
#341 = ORIENTED_EDGE ( 'NONE', *, *, #164, .T. ) ;
#342 = ORIENTED_EDGE ( 'NONE', *, *, #164, .F. ) ;
#343 = ORIENTED_EDGE ( 'NONE', *, *, #159, .F. ) ;
#344 = VERTEX_POINT ( 'NONE', #422 ) ;
#345 = VERTEX_POINT ( 'NONE', #3 ) ;
#346 = FACE_OUTER_BOUND ( 'NONE', #397, .T. ) ;
#347 = FACE_BOUND ( 'NONE', #396, .T. ) ;
#348 = FACE_OUTER_BOUND ( 'NONE', #381, .T. ) ;
#349 = FACE_BOUND ( 'NONE', #384, .T. ) ;
#350 = FACE_OUTER_BOUND ( 'NONE', #395, .T. ) ;
#351 = FACE_OUTER_BOUND ( 'NONE', #388, .T. ) ;
#352 = VERTEX_POINT ( 'NONE', #423 ) ;
#353 = VERTEX_POINT ( 'NONE', #419 ) ;
#354 = ORIENTED_EDGE ( 'NONE', *, *, #151, .F. ) ;
#355 = ORIENTED_EDGE ( 'NONE', *, *, #143, .T. ) ;
#356 = ORIENTED_EDGE ( 'NONE', *, *, #156, .F. ) ;
#357 = VERTEX_POINT ( 'NONE', #425 ) ;
#358 = FACE_OUTER_BOUND ( 'NONE', #379, .T. ) ;
#359 = ORIENTED_EDGE ( 'NONE', *, *, #162, .F. ) ;
#360 = ORIENTED_EDGE ( 'NONE', *, *, #142, .T. ) ;
#361 = ORIENTED_EDGE ( 'NONE', *, *, #143, .F. ) ;
#362 = ORIENTED_EDGE ( 'NONE', *, *, #176, .T. ) ;
#363 = ORIENTED_EDGE ( 'NONE', *, *, #159, .T. ) ;
#364 = ORIENTED_EDGE ( 'NONE', *, *, #158, .F. ) ;
#365 = ORIENTED_EDGE ( 'NONE', *, *, #152, .F. ) ;
#366 = ORIENTED_EDGE ( 'NONE', *, *, #150, .F. ) ;
#367 = ORIENTED_EDGE ( 'NONE', *, *, #161, .T. ) ;
#368 = ORIENTED_EDGE ( 'NONE', *, *, #177, .F. ) ;
#369 = ORIENTED_EDGE ( 'NONE', *, *, #154, .F. ) ;
#370 = ORIENTED_EDGE ( 'NONE', *, *, #140, .T. ) ;
#371 = ORIENTED_EDGE ( 'NONE', *, *, #151, .T. ) ;
#372 = ORIENTED_EDGE ( 'NONE', *, *, #155, .F. ) ;
#373 = ORIENTED_EDGE ( 'NONE', *, *, #153, .F. ) ;
#374 = ORIENTED_EDGE ( 'NONE', *, *, #168, .T. ) ;
#375 = ORIENTED_EDGE ( 'NONE', *, *, #157, .F. ) ;
#376 = ORIENTED_EDGE ( 'NONE', *, *, #150, .T. ) ;
#377 = ORIENTED_EDGE ( 'NONE', *, *, #156, .T. ) ;
#378 = EDGE_LOOP ( 'NONE', ( #322, #333, #321, #323 ) ) ;
#379 = EDGE_LOOP ( 'NONE', ( #361, #366, #371, #370 ) ) ;
#380 = EDGE_LOOP ( 'NONE', ( #339, #340, #354, #356, #343, #359, #337, #334 ) ) ;
#381 = EDGE_LOOP ( 'NONE', ( #310, #309, #360, #362 ) ) ;
#382 = EDGE_LOOP ( 'NONE', ( #373 ) ) ;
#383 = EDGE_LOOP ( 'NONE', ( #326, #342, #315, #367 ) ) ;
#384 = EDGE_LOOP ( 'NONE', ( #313 ) ) ;
#385 = EDGE_LOOP ( 'NONE', ( #369, #372, #377, #376 ) ) ;
#386 = EDGE_LOOP ( 'NONE', ( #325 ) ) ;
#387 = EDGE_LOOP ( 'NONE', ( #335, #331, #332, #330, #329, #328, #355, #324 ) ) ;
#388 = EDGE_LOOP ( 'NONE', ( #311, #368, #338, #341 ) ) ;
#389 = EDGE_LOOP ( 'NONE', ( #365 ) ) ;
#390 = EDGE_LOOP ( 'NONE', ( #336 ) ) ;
#391 = EDGE_LOOP ( 'NONE', ( #316 ) ) ;
#392 = FACE_OUTER_BOUND ( 'NONE', #378, .T. ) ;
#393 = EDGE_LOOP ( 'NONE', ( #374 ) ) ;
#394 = FACE_OUTER_BOUND ( 'NONE', #383, .T. ) ;
#395 = EDGE_LOOP ( 'NONE', ( #318, #317, #320, #314 ) ) ;
#396 = EDGE_LOOP ( 'NONE', ( #319 ) ) ;
#397 = EDGE_LOOP ( 'NONE', ( #375, #364, #363, #327 ) ) ;
#398 = PRODUCT ( 'Êðûøêà íà îòâåòâèòåëü Ò-îáðàçíûé âåðòèêàëüíûé TDSA_38383', 'Êðûøêà íà îòâåòâèòåëü Ò-îáðàçíûé âåðòèêàëüíûé TDSA_38383', '', ( #436 ) ) ;
#399 = PERSON ( 'UNSPECIFIED', 'UNSPECIFIED', 'UNSPECIFIED', ('UNSPECIFIED'), ('UNSPECIFIED'), ('UNSPECIFIED') ) ;
#400 = MANIFOLD_SOLID_BREP ( 'Âûðåç-Âûòÿíóòü1', #312 ) ;
#401 = ADVANCED_BREP_SHAPE_REPRESENTATION ( '¦¨v°úð ýð þªòõªòøªõû¹ T-þñ¨ð÷ývù òõ¨ªøúðû¹ývù TDSA_38383', ( #400, #175 ), #145 ) ;
#402 = UNCERTAINTY_MEASURE_WITH_UNIT (LENGTH_MEASURE( 1.000000000000000100E-005 ), #429, 'distance_accuracy_value', 'NONE');
#403 = DESIGN_CONTEXT ( 'detailed design', #437, 'design' ) ;
#404 = PRODUCT_DEFINITION_SHAPE ( 'NONE', 'NONE',  #172 ) ;
#405 = APPLICATION_PROTOCOL_DEFINITION ( 'international standard', 'config_control_design', 1994, #437 ) ;
#406 = APPROVAL_STATUS ( 'not_yet_approved' ) ;
#407 = APPROVAL_ROLE ( '' ) ;
#408 = PERSON_AND_ORGANIZATION_ROLE ( 'creator' ) ;
#409 = DATE_TIME_ROLE ( 'creation_date' ) ;
#410 = APPROVAL_STATUS ( 'not_yet_approved' ) ;
#411 = PERSON_AND_ORGANIZATION_ROLE ( 'design_supplier' ) ;
#412 = APPROVAL_ROLE ( '' ) ;
#413 = PERSON_AND_ORGANIZATION_ROLE ( 'creator' ) ;
#414 = SECURITY_CLASSIFICATION_LEVEL ( 'unclassified' ) ;
#415 = PERSON_AND_ORGANIZATION_ROLE ( 'classification_officer' ) ;
#416 = DATE_TIME_ROLE ( 'classification_date' ) ;
#417 = APPROVAL_STATUS ( 'not_yet_approved' ) ;
#418 = APPROVAL_ROLE ( '' ) ;
#419 = CARTESIAN_POINT ( 'NONE',  ( -41.00000000000000000, -14.00000000000000000, 0.0000000000000000000 ) ) ;
#420 = CARTESIAN_POINT ( 'NONE',  ( 0.0000000000000000000, 0.0000000000000000000, 0.0000000000000000000 ) ) ;
#421 = CARTESIAN_POINT ( 'NONE',  ( 1.734723475976807100E-015, 0.5999999999999999800, 17.49999999999999600 ) ) ;
#422 = CARTESIAN_POINT ( 'NONE',  ( -41.60000000000000900, -14.00000000000000000, 0.0000000000000000000 ) ) ;
#423 = CARTESIAN_POINT ( 'NONE',  ( 41.60000000000000900, 0.5999999999999999800, 460.0000000000000000 ) ) ;
#424 = CARTESIAN_POINT ( 'NONE',  ( 0.0000000000000000000, 0.5999999999999999800, 442.5000000000000600 ) ) ;
#425 = CARTESIAN_POINT ( 'NONE',  ( -41.00000000000000000, -14.00000000000000000, 460.0000000000000000 ) ) ;
#426 = CARTESIAN_POINT ( 'NONE',  ( 0.0000000000000000000, 0.0000000000000000000, 447.5000000000000600 ) ) ;
#427 = CARTESIAN_POINT ( 'NONE',  ( 1.734723475976807100E-015, 0.0000000000000000000, 17.49999999999999600 ) ) ;
#428 = DIRECTION ( 'NONE',  ( 0.0000000000000000000, 0.0000000000000000000, 1.000000000000000000 ) ) ;
#429 =( LENGTH_UNIT ( ) NAMED_UNIT ( * ) SI_UNIT ( .MILLI., .METRE. ) );
#430 =( NAMED_UNIT ( * ) PLANE_ANGLE_UNIT ( ) SI_UNIT ( $, .RADIAN. ) );
#431 =( NAMED_UNIT ( * ) SI_UNIT ( $, .STERADIAN. ) SOLID_ANGLE_UNIT ( ) );
#432 = APPLICATION_PROTOCOL_DEFINITION ( 'international standard', 'config_control_design', 1994, #434 ) ;
#433 = PERSON_AND_ORGANIZATION_ROLE ( 'design_owner' ) ;
#434 = APPLICATION_CONTEXT ( 'configuration controlled 3d designs of mechanical parts and assemblies' ) ;
#435 = DIRECTION ( 'NONE',  ( 1.000000000000000000, 0.0000000000000000000, 0.0000000000000000000 ) ) ;
#436 = MECHANICAL_CONTEXT ( 'NONE', #434, 'mechanical' ) ;
#437 = APPLICATION_CONTEXT ( 'configuration controlled 3d designs of mechanical parts and assemblies' ) ;
ENDSEC;
END-ISO-10303-21;
