ISO-10303-21;
HEADER;
FILE_DESCRIPTION(('Creo Elements/Direct Modeling STEP Export'),'2;1');
FILE_NAME('SCB.4_PT.stp','2015-01-28T 8:05:48',(''),(''),
'PTC Creo Elements/Direct Modeling STEP processor for AP214 (Solid Model
)',
'PTC Creo Elements/Direct Modeling 19.0A  04-Oct-2014 (C) Parametric Tec
hnology GmbH','');
FILE_SCHEMA(('AUTOMOTIVE_DESIGN { 1 0 10303 214 1 1 1 1 }'));
ENDSEC;
DATA;
#10=CARTESIAN_POINT('',(-39.4463987778236,33.0000000000008,
-1.11022302462516E-16));
#20=DIRECTION('',(2.08166817117217E-16,-1.,0.));
#30=DIRECTION('',(-1.,-2.08166817117217E-16,0.));
#40=AXIS2_PLACEMENT_3D('',#10,#20,#30);
#50=PLANE('',#40);
#60=CARTESIAN_POINT('',(-27.261191,33.0000000000008,0.));
#70=DIRECTION('',(-1.,-2.08166817117217E-16,0.));
#80=VECTOR('',#70,1.);
#90=LINE('',#60,#80);
#100=CARTESIAN_POINT('',(22.4498962308947,33.0000000000008,0.));
#110=VERTEX_POINT('',#100);
#120=CARTESIAN_POINT('',(-27.8498962308947,33.0000000000008,0.));
#130=VERTEX_POINT('',#120);
#140=EDGE_CURVE('',#110,#130,#90,.T.);
#150=ORIENTED_EDGE('',*,*,#140,.T.);
#160=CARTESIAN_POINT('',(22.4498962308947,33.0000000000008,
5.55111512312578E-17));
#170=DIRECTION('',(0.,0.,-1.));
#180=VECTOR('',#170,1.);
#190=LINE('',#160,#180);
#200=CARTESIAN_POINT('',(22.4498962308947,33.0000000000008,1.5));
#210=VERTEX_POINT('',#200);
#220=EDGE_CURVE('',#210,#110,#190,.T.);
#230=ORIENTED_EDGE('',*,*,#220,.T.);
#240=CARTESIAN_POINT('',(-27.261191,33.0000000000008,1.5));
#250=DIRECTION('',(1.,2.08166817117217E-16,0.));
#260=VECTOR('',#250,1.);
#270=LINE('',#240,#260);
#280=CARTESIAN_POINT('',(-27.8498962308947,33.0000000000008,1.5));
#290=VERTEX_POINT('',#280);
#300=EDGE_CURVE('',#290,#210,#270,.T.);
#310=ORIENTED_EDGE('',*,*,#300,.T.);
#320=CARTESIAN_POINT('',(-27.8498962308947,33.0000000000008,
5.55111512312578E-17));
#330=DIRECTION('',(0.,0.,-1.));
#340=VECTOR('',#330,1.);
#350=LINE('',#320,#340);
#360=EDGE_CURVE('',#290,#130,#350,.T.);
#370=ORIENTED_EDGE('',*,*,#360,.F.);
#380=EDGE_LOOP('',(#370,#310,#230,#150));
#390=FACE_OUTER_BOUND('',#380,.T.);
#400=ADVANCED_FACE('',(#390),#50,.F.);
#410=CARTESIAN_POINT('',(-31.6999999999996,13.8395980000001,-0.25));
#420=DIRECTION('',(1.,0.,0.));
#430=DIRECTION('',(0.,-1.,0.));
#440=AXIS2_PLACEMENT_3D('',#410,#420,#430);
#450=PLANE('',#440);
#460=CARTESIAN_POINT('',(-31.6999999999996,19.5603130000001,1.5));
#470=DIRECTION('',(0.,1.,0.));
#480=VECTOR('',#470,1.);
#490=LINE('',#460,#480);
#500=CARTESIAN_POINT('',(-31.6999999999996,1.50000000000006,1.5));
#510=VERTEX_POINT('',#500);
#520=CARTESIAN_POINT('',(-31.6999999999996,23.3838290319096,1.5));
#530=VERTEX_POINT('',#520);
#540=EDGE_CURVE('',#510,#530,#490,.T.);
#550=ORIENTED_EDGE('',*,*,#540,.T.);
#560=CARTESIAN_POINT('',(-31.6999999999996,1.50000000000006,
5.55111512312578E-17));
#570=DIRECTION('',(0.,0.,1.));
#580=VECTOR('',#570,1.);
#590=LINE('',#560,#580);
#600=CARTESIAN_POINT('',(-31.6999999999996,1.50000000000006,0.));
#610=VERTEX_POINT('',#600);
#620=EDGE_CURVE('',#610,#510,#590,.T.);
#630=ORIENTED_EDGE('',*,*,#620,.T.);
#640=CARTESIAN_POINT('',(-31.6999999999996,19.5603130000001,0.));
#650=DIRECTION('',(0.,-1.,0.));
#660=VECTOR('',#650,1.);
#670=LINE('',#640,#660);
#680=CARTESIAN_POINT('',(-31.6999999999996,23.3838290319096,0.));
#690=VERTEX_POINT('',#680);
#700=EDGE_CURVE('',#690,#610,#670,.T.);
#710=ORIENTED_EDGE('',*,*,#700,.T.);
#720=CARTESIAN_POINT('',(-31.6999999999996,23.3838290319096,
5.55111512312578E-17));
#730=DIRECTION('',(0.,0.,1.));
#740=VECTOR('',#730,1.);
#750=LINE('',#720,#740);
#760=EDGE_CURVE('',#690,#530,#750,.T.);
#770=ORIENTED_EDGE('',*,*,#760,.F.);
#780=EDGE_LOOP('',(#770,#710,#630,#550));
#790=FACE_OUTER_BOUND('',#780,.T.);
#800=ADVANCED_FACE('',(#790),#450,.F.);
#810=CARTESIAN_POINT('',(-23.6999999999996,5.6843418860808E-14,-0.25));
#820=DIRECTION('',(-0.,-1.,-0.));
#830=DIRECTION('',(-1.,0.,0.));
#840=AXIS2_PLACEMENT_3D('',#810,#820,#830);
#850=PLANE('',#840);
#860=CARTESIAN_POINT('',(24.7999999999996,5.6843418860808E-14,
5.55111512312578E-17));
#870=DIRECTION('',(0.,0.,1.));
#880=VECTOR('',#870,1.);
#890=LINE('',#860,#880);
#900=CARTESIAN_POINT('',(24.7999999999996,5.6843418860808E-14,0.));
#910=VERTEX_POINT('',#900);
#920=CARTESIAN_POINT('',(24.7999999999996,5.6843418860808E-14,1.5));
#930=VERTEX_POINT('',#920);
#940=EDGE_CURVE('',#910,#930,#890,.T.);
#950=ORIENTED_EDGE('',*,*,#940,.T.);
#960=CARTESIAN_POINT('',(-27.261191,5.6843418860808E-14,0.));
#970=DIRECTION('',(-1.,0.,0.));
#980=VECTOR('',#970,1.);
#990=LINE('',#960,#980);
#1000=CARTESIAN_POINT('',(-30.1999999999996,5.6843418860808E-14,0.));
#1010=VERTEX_POINT('',#1000);
#1020=EDGE_CURVE('',#910,#1010,#990,.T.);
#1030=ORIENTED_EDGE('',*,*,#1020,.F.);
#1040=CARTESIAN_POINT('',(-30.1999999999996,5.6843418860808E-14,
5.55111512312578E-17));
#1050=DIRECTION('',(0.,0.,1.));
#1060=VECTOR('',#1050,1.);
#1070=LINE('',#1040,#1060);
#1080=CARTESIAN_POINT('',(-30.1999999999996,5.6843418860808E-14,1.5));
#1090=VERTEX_POINT('',#1080);
#1100=EDGE_CURVE('',#1010,#1090,#1070,.T.);
#1110=ORIENTED_EDGE('',*,*,#1100,.F.);
#1120=CARTESIAN_POINT('',(-27.261191,5.6843418860808E-14,1.5));
#1130=DIRECTION('',(1.,0.,0.));
#1140=VECTOR('',#1130,1.);
#1150=LINE('',#1120,#1140);
#1160=EDGE_CURVE('',#1090,#930,#1150,.T.);
#1170=ORIENTED_EDGE('',*,*,#1160,.F.);
#1180=EDGE_LOOP('',(#1170,#1110,#1030,#950));
#1190=FACE_OUTER_BOUND('',#1180,.T.);
#1200=ADVANCED_FACE('',(#1190),#850,.T.);
#1210=CARTESIAN_POINT('',(-30.1999999999996,1.50000000000006,
5.55111512312578E-17));
#1220=DIRECTION('',(0.,0.,1.));
#1230=DIRECTION('',(1.,0.,0.));
#1240=AXIS2_PLACEMENT_3D('',#1210,#1220,#1230);
#1250=CYLINDRICAL_SURFACE('',#1240,1.5);
#1260=CARTESIAN_POINT('',(-30.1999999999996,1.50000000000006,1.5));
#1270=DIRECTION('',(0.,0.,1.));
#1280=DIRECTION('',(1.,0.,0.));
#1290=AXIS2_PLACEMENT_3D('',#1260,#1270,#1280);
#1300=CIRCLE('',#1290,1.5);
#1310=EDGE_CURVE('',#510,#1090,#1300,.T.);
#1320=ORIENTED_EDGE('',*,*,#1310,.F.);
#1330=ORIENTED_EDGE('',*,*,#1100,.T.);
#1340=CARTESIAN_POINT('',(-30.1999999999996,1.50000000000006,0.));
#1350=DIRECTION('',(0.,0.,1.));
#1360=DIRECTION('',(1.,0.,0.));
#1370=AXIS2_PLACEMENT_3D('',#1340,#1350,#1360);
#1380=CIRCLE('',#1370,1.5);
#1390=EDGE_CURVE('',#610,#1010,#1380,.T.);
#1400=ORIENTED_EDGE('',*,*,#1390,.T.);
#1410=ORIENTED_EDGE('',*,*,#620,.F.);
#1420=EDGE_LOOP('',(#1410,#1400,#1330,#1320));
#1430=FACE_OUTER_BOUND('',#1420,.T.);
#1440=ADVANCED_FACE('',(#1430),#1250,.T.);
#1450=CARTESIAN_POINT('',(-29.961191,19.560313,1.5));
#1460=DIRECTION('',(0.,0.,1.));
#1470=DIRECTION('',(1.,0.,0.));
#1480=AXIS2_PLACEMENT_3D('',#1450,#1460,#1470);
#1490=PLANE('',#1480);
#1500=CARTESIAN_POINT('',(22.4498962308947,32.5000000000008,1.5));
#1510=DIRECTION('',(0.,0.,1.));
#1520=DIRECTION('',(1.,0.,0.));
#1530=AXIS2_PLACEMENT_3D('',#1500,#1510,#1520);
#1540=CIRCLE('',#1530,0.5);
#1550=CARTESIAN_POINT('',(22.9197425412877,32.6710100716636,1.5));
#1560=VERTEX_POINT('',#1550);
#1570=EDGE_CURVE('',#1560,#210,#1540,.T.);
#1580=ORIENTED_EDGE('',*,*,#1570,.T.);
#1590=CARTESIAN_POINT('',(27.6916460258543,19.5603130000001,1.5));
#1600=DIRECTION('',(-0.342020143325669,0.939692620785908,0.));
#1610=VECTOR('',#1600,1.);
#1620=LINE('',#1590,#1610);
#1630=CARTESIAN_POINT('',(26.2999999999996,23.3838290319096,1.5));
#1640=VERTEX_POINT('',#1630);
#1650=EDGE_CURVE('',#1640,#1560,#1620,.T.);
#1660=ORIENTED_EDGE('',*,*,#1650,.T.);
#1670=CARTESIAN_POINT('',(26.2999999999996,19.5603130000001,1.5));
#1680=DIRECTION('',(0.,1.,0.));
#1690=VECTOR('',#1680,1.);
#1700=LINE('',#1670,#1690);
#1710=CARTESIAN_POINT('',(26.2999999999996,1.50000000000006,1.5));
#1720=VERTEX_POINT('',#1710);
#1730=EDGE_CURVE('',#1720,#1640,#1700,.T.);
#1740=ORIENTED_EDGE('',*,*,#1730,.T.);
#1750=CARTESIAN_POINT('',(24.7999999999996,1.50000000000006,1.5));
#1760=DIRECTION('',(0.,0.,-1.));
#1770=DIRECTION('',(-1.,0.,0.));
#1780=AXIS2_PLACEMENT_3D('',#1750,#1760,#1770);
#1790=CIRCLE('',#1780,1.5);
#1800=EDGE_CURVE('',#1720,#930,#1790,.T.);
#1810=ORIENTED_EDGE('',*,*,#1800,.F.);
#1820=ORIENTED_EDGE('',*,*,#1160,.T.);
#1830=ORIENTED_EDGE('',*,*,#1310,.T.);
#1840=ORIENTED_EDGE('',*,*,#540,.F.);
#1850=CARTESIAN_POINT('',(-33.0916460258543,19.5603130000001,1.5));
#1860=DIRECTION('',(0.342020143325669,0.939692620785908,0.));
#1870=VECTOR('',#1860,1.);
#1880=LINE('',#1850,#1870);
#1890=CARTESIAN_POINT('',(-28.3197425412877,32.6710100716636,1.5));
#1900=VERTEX_POINT('',#1890);
#1910=EDGE_CURVE('',#530,#1900,#1880,.T.);
#1920=ORIENTED_EDGE('',*,*,#1910,.F.);
#1930=CARTESIAN_POINT('',(-27.8498962308947,32.5000000000008,1.5));
#1940=DIRECTION('',(0.,0.,-1.));
#1950=DIRECTION('',(-1.,0.,0.));
#1960=AXIS2_PLACEMENT_3D('',#1930,#1940,#1950);
#1970=CIRCLE('',#1960,0.5);
#1980=EDGE_CURVE('',#1900,#290,#1970,.T.);
#1990=ORIENTED_EDGE('',*,*,#1980,.F.);
#2000=ORIENTED_EDGE('',*,*,#300,.F.);
#2010=EDGE_LOOP('',(#2000,#1990,#1920,#1840,#1830,#1820,#1810,#1740,
#1660,#1580));
#2020=FACE_OUTER_BOUND('',#2010,.T.);
#2030=ADVANCED_FACE('',(#2020),#1490,.T.);
#2040=CARTESIAN_POINT('',(-29.961191,19.560313,0.));
#2050=DIRECTION('',(0.,0.,1.));
#2060=DIRECTION('',(1.,0.,0.));
#2070=AXIS2_PLACEMENT_3D('',#2040,#2050,#2060);
#2080=PLANE('',#2070);
#2090=ORIENTED_EDGE('',*,*,#1390,.F.);
#2100=ORIENTED_EDGE('',*,*,#1020,.T.);
#2110=CARTESIAN_POINT('',(24.7999999999996,1.50000000000006,0.));
#2120=DIRECTION('',(0.,0.,-1.));
#2130=DIRECTION('',(-1.,0.,0.));
#2140=AXIS2_PLACEMENT_3D('',#2110,#2120,#2130);
#2150=CIRCLE('',#2140,1.5);
#2160=CARTESIAN_POINT('',(26.2999999999996,1.50000000000006,0.));
#2170=VERTEX_POINT('',#2160);
#2180=EDGE_CURVE('',#2170,#910,#2150,.T.);
#2190=ORIENTED_EDGE('',*,*,#2180,.T.);
#2200=CARTESIAN_POINT('',(26.2999999999996,19.5603130000001,0.));
#2210=DIRECTION('',(0.,-1.,0.));
#2220=VECTOR('',#2210,1.);
#2230=LINE('',#2200,#2220);
#2240=CARTESIAN_POINT('',(26.2999999999996,23.3838290319096,0.));
#2250=VERTEX_POINT('',#2240);
#2260=EDGE_CURVE('',#2250,#2170,#2230,.T.);
#2270=ORIENTED_EDGE('',*,*,#2260,.T.);
#2280=CARTESIAN_POINT('',(27.6916460258543,19.5603130000001,0.));
#2290=DIRECTION('',(0.342020143325669,-0.939692620785908,0.));
#2300=VECTOR('',#2290,1.);
#2310=LINE('',#2280,#2300);
#2320=CARTESIAN_POINT('',(22.9197425412877,32.6710100716636,0.));
#2330=VERTEX_POINT('',#2320);
#2340=EDGE_CURVE('',#2330,#2250,#2310,.T.);
#2350=ORIENTED_EDGE('',*,*,#2340,.T.);
#2360=CARTESIAN_POINT('',(22.4498962308947,32.5000000000008,0.));
#2370=DIRECTION('',(0.,0.,1.));
#2380=DIRECTION('',(1.,0.,0.));
#2390=AXIS2_PLACEMENT_3D('',#2360,#2370,#2380);
#2400=CIRCLE('',#2390,0.5);
#2410=EDGE_CURVE('',#2330,#110,#2400,.T.);
#2420=ORIENTED_EDGE('',*,*,#2410,.F.);
#2430=ORIENTED_EDGE('',*,*,#140,.F.);
#2440=CARTESIAN_POINT('',(-27.8498962308947,32.5000000000008,0.));
#2450=DIRECTION('',(0.,0.,-1.));
#2460=DIRECTION('',(-1.,0.,0.));
#2470=AXIS2_PLACEMENT_3D('',#2440,#2450,#2460);
#2480=CIRCLE('',#2470,0.5);
#2490=CARTESIAN_POINT('',(-28.3197425412877,32.6710100716636,0.));
#2500=VERTEX_POINT('',#2490);
#2510=EDGE_CURVE('',#2500,#130,#2480,.T.);
#2520=ORIENTED_EDGE('',*,*,#2510,.T.);
#2530=CARTESIAN_POINT('',(-33.0916460258543,19.5603130000001,0.));
#2540=DIRECTION('',(-0.342020143325669,-0.939692620785908,0.));
#2550=VECTOR('',#2540,1.);
#2560=LINE('',#2530,#2550);
#2570=EDGE_CURVE('',#2500,#690,#2560,.T.);
#2580=ORIENTED_EDGE('',*,*,#2570,.F.);
#2590=ORIENTED_EDGE('',*,*,#700,.F.);
#2600=EDGE_LOOP('',(#2590,#2580,#2520,#2430,#2420,#2350,#2270,#2190,
#2100,#2090));
#2610=FACE_OUTER_BOUND('',#2600,.T.);
#2620=ADVANCED_FACE('',(#2610),#2080,.F.);
#2630=CARTESIAN_POINT('',(-27.8498962308947,32.5000000000008,
5.55111512312578E-17));
#2640=DIRECTION('',(0.,0.,-1.));
#2650=DIRECTION('',(-1.,0.,0.));
#2660=AXIS2_PLACEMENT_3D('',#2630,#2640,#2650);
#2670=CYLINDRICAL_SURFACE('',#2660,0.5);
#2680=ORIENTED_EDGE('',*,*,#2510,.F.);
#2690=ORIENTED_EDGE('',*,*,#360,.T.);
#2700=ORIENTED_EDGE('',*,*,#1980,.T.);
#2710=CARTESIAN_POINT('',(-28.3197425412877,32.6710100716636,
5.55111512312578E-17));
#2720=DIRECTION('',(0.,0.,-1.));
#2730=VECTOR('',#2720,1.);
#2740=LINE('',#2710,#2730);
#2750=EDGE_CURVE('',#1900,#2500,#2740,.T.);
#2760=ORIENTED_EDGE('',*,*,#2750,.F.);
#2770=EDGE_LOOP('',(#2760,#2700,#2690,#2680));
#2780=FACE_OUTER_BOUND('',#2770,.T.);
#2790=ADVANCED_FACE('',(#2780),#2670,.T.);
#2800=CARTESIAN_POINT('',(-29.9499999999996,28.1919145159552,0.75));
#2810=DIRECTION('',(0.939692620785908,-0.342020143325669,0.));
#2820=DIRECTION('',(0.342020143325669,0.939692620785908,0.));
#2830=AXIS2_PLACEMENT_3D('',#2800,#2810,#2820);
#2840=PLANE('',#2830);
#2850=ORIENTED_EDGE('',*,*,#1910,.T.);
#2860=ORIENTED_EDGE('',*,*,#760,.T.);
#2870=ORIENTED_EDGE('',*,*,#2570,.T.);
#2880=ORIENTED_EDGE('',*,*,#2750,.T.);
#2890=EDGE_LOOP('',(#2880,#2870,#2860,#2850));
#2900=FACE_OUTER_BOUND('',#2890,.T.);
#2910=ADVANCED_FACE('',(#2900),#2840,.F.);
#2920=CARTESIAN_POINT('',(24.5499999999996,28.1919145159552,0.75));
#2930=DIRECTION('',(0.939692620785908,0.342020143325669,-0.));
#2940=DIRECTION('',(-0.342020143325669,0.939692620785908,0.));
#2950=AXIS2_PLACEMENT_3D('',#2920,#2930,#2940);
#2960=PLANE('',#2950);
#2970=CARTESIAN_POINT('',(22.9197425412877,32.6710100716636,
5.55111512312578E-17));
#2980=DIRECTION('',(0.,0.,-1.));
#2990=VECTOR('',#2980,1.);
#3000=LINE('',#2970,#2990);
#3010=EDGE_CURVE('',#1560,#2330,#3000,.T.);
#3020=ORIENTED_EDGE('',*,*,#3010,.F.);
#3030=ORIENTED_EDGE('',*,*,#2340,.F.);
#3040=CARTESIAN_POINT('',(26.2999999999996,23.3838290319096,
5.55111512312578E-17));
#3050=DIRECTION('',(0.,0.,1.));
#3060=VECTOR('',#3050,1.);
#3070=LINE('',#3040,#3060);
#3080=EDGE_CURVE('',#2250,#1640,#3070,.T.);
#3090=ORIENTED_EDGE('',*,*,#3080,.F.);
#3100=ORIENTED_EDGE('',*,*,#1650,.F.);
#3110=EDGE_LOOP('',(#3100,#3090,#3030,#3020));
#3120=FACE_OUTER_BOUND('',#3110,.T.);
#3130=ADVANCED_FACE('',(#3120),#2960,.T.);
#3140=CARTESIAN_POINT('',(26.2999999999996,13.8395980000001,-0.25));
#3150=DIRECTION('',(1.,0.,0.));
#3160=DIRECTION('',(0.,-1.,0.));
#3170=AXIS2_PLACEMENT_3D('',#3140,#3150,#3160);
#3180=PLANE('',#3170);
#3190=ORIENTED_EDGE('',*,*,#3080,.T.);
#3200=ORIENTED_EDGE('',*,*,#2260,.F.);
#3210=CARTESIAN_POINT('',(26.2999999999996,1.50000000000006,
5.55111512312578E-17));
#3220=DIRECTION('',(0.,0.,1.));
#3230=VECTOR('',#3220,1.);
#3240=LINE('',#3210,#3230);
#3250=EDGE_CURVE('',#2170,#1720,#3240,.T.);
#3260=ORIENTED_EDGE('',*,*,#3250,.F.);
#3270=ORIENTED_EDGE('',*,*,#1730,.F.);
#3280=EDGE_LOOP('',(#3270,#3260,#3200,#3190));
#3290=FACE_OUTER_BOUND('',#3280,.T.);
#3300=ADVANCED_FACE('',(#3290),#3180,.T.);
#3310=CARTESIAN_POINT('',(22.4498962308947,32.5000000000008,
5.55111512312578E-17));
#3320=DIRECTION('',(0.,0.,-1.));
#3330=DIRECTION('',(1.,0.,0.));
#3340=AXIS2_PLACEMENT_3D('',#3310,#3320,#3330);
#3350=CYLINDRICAL_SURFACE('',#3340,0.5);
#3360=ORIENTED_EDGE('',*,*,#3010,.T.);
#3370=ORIENTED_EDGE('',*,*,#1570,.F.);
#3380=ORIENTED_EDGE('',*,*,#220,.F.);
#3390=ORIENTED_EDGE('',*,*,#2410,.T.);
#3400=EDGE_LOOP('',(#3390,#3380,#3370,#3360));
#3410=FACE_OUTER_BOUND('',#3400,.T.);
#3420=ADVANCED_FACE('',(#3410),#3350,.T.);
#3430=CARTESIAN_POINT('',(24.7999999999996,1.50000000000006,
5.55111512312578E-17));
#3440=DIRECTION('',(0.,0.,1.));
#3450=DIRECTION('',(-1.,0.,0.));
#3460=AXIS2_PLACEMENT_3D('',#3430,#3440,#3450);
#3470=CYLINDRICAL_SURFACE('',#3460,1.5);
#3480=ORIENTED_EDGE('',*,*,#3250,.T.);
#3490=ORIENTED_EDGE('',*,*,#2180,.F.);
#3500=ORIENTED_EDGE('',*,*,#940,.F.);
#3510=ORIENTED_EDGE('',*,*,#1800,.T.);
#3520=EDGE_LOOP('',(#3510,#3500,#3490,#3480));
#3530=FACE_OUTER_BOUND('',#3520,.T.);
#3540=ADVANCED_FACE('',(#3530),#3470,.T.);
#3550=CLOSED_SHELL('',(#400,#800,#1200,#1440,#2030,#2620,#2790,#2910,
#3130,#3300,#3420,#3540));
#3560=MANIFOLD_SOLID_BREP('',#3550);
#3570=CARTESIAN_POINT('',(0.,0.,0.));
#3580=DIRECTION('',(0.,0.,1.));
#3590=DIRECTION('',(1.,0.,0.));
#3600=AXIS2_PLACEMENT_3D('',#3570,#3580,#3590);
#3610=APPLICATION_CONTEXT(' ');
#3620=APPLICATION_PROTOCOL_DEFINITION(' ','automotive_design',1998,#3610
);
#3630=PRODUCT_CONTEXT('',#3610,'mechanical');
#3640=PRODUCT_DEFINITION_CONTEXT('part definition',#3610,'design');
#3650=PRODUCT('SCB.4_PT','SCB.4_PT','',(#3630));
#3660=PRODUCT_RELATED_PRODUCT_CATEGORY('part',' ',(#3650));
#3670=PRODUCT_DEFINITION_FORMATION_WITH_SPECIFIED_SOURCE('','',#3650,
.BOUGHT.);
#3680=PRODUCT_DEFINITION('',' ',#3670,#3640);
#3690=PRODUCT_DEFINITION_SHAPE('','',#3680);
#3700=DIMENSIONAL_EXPONENTS(1.,0.,0.,0.,0.,0.,0.);
#3710=DIMENSIONAL_EXPONENTS(0.,0.,0.,0.,0.,0.,0.);
#3720=DIMENSIONAL_EXPONENTS(0.,0.,0.,0.,0.,0.,0.);
#3730=(LENGTH_UNIT() NAMED_UNIT(*) SI_UNIT(.MILLI.,.METRE.));
#3740=(NAMED_UNIT(*) PLANE_ANGLE_UNIT() SI_UNIT($,.RADIAN.));
#3750=(NAMED_UNIT(*) SI_UNIT($,.STERADIAN.) SOLID_ANGLE_UNIT());
#3760=(GEOMETRIC_REPRESENTATION_CONTEXT(3) 
GLOBAL_UNCERTAINTY_ASSIGNED_CONTEXT((#3770)) 
GLOBAL_UNIT_ASSIGNED_CONTEXT((#3730,#3740,#3750)) REPRESENTATION_CONTEXT
('',''));
#3770=UNCERTAINTY_MEASURE_WITH_UNIT(LENGTH_MEASURE(1.E-6),#3730,
'distance_accuracy_value','maximum gap value');
#3780=ADVANCED_BREP_SHAPE_REPRESENTATION('',(#3600,#3560),#3760);
#3790=SHAPE_DEFINITION_REPRESENTATION(#3690,#3780);
#3800=COLOUR_RGB('',1.,0.878431439399719,0.701960802078247);
#3810=FILL_AREA_STYLE_COLOUR('',#3800);
#3820=FILL_AREA_STYLE('',(#3810));
#3830=SURFACE_STYLE_FILL_AREA(#3820);
#3840=SURFACE_SIDE_STYLE('',(#3830));
#3850=SURFACE_STYLE_USAGE(.BOTH.,#3840);
#3860=PRESENTATION_STYLE_ASSIGNMENT((#3850));
#3870=STYLED_ITEM('',(#3860),#3560);
#3880=DRAUGHTING_MODEL('',(#3870),#3760);
#3890=CARTESIAN_POINT('',(2.69999999999999,0.,0.));
#3900=DIRECTION('',(0.,0.,1.));
#3910=DIRECTION('',(1.,0.,0.));
#3920=AXIS2_PLACEMENT_3D('',#3890,#3900,#3910);
#3930=ITEM_DEFINED_TRANSFORMATION('SCB.4_PT','',#3600,#3920);
#3940=APPLICATION_CONTEXT(' ');
#3950=APPLICATION_PROTOCOL_DEFINITION(' ','automotive_design',1998,#3940
);
#3960=PRODUCT_CONTEXT('',#3940,'mechanical');
#3970=PRODUCT_DEFINITION_CONTEXT('part definition',#3940,'design');
#3980=PRODUCT('SCB.4_PT','SCB.4_PT','',(#3960));
#3990=PRODUCT_RELATED_PRODUCT_CATEGORY('part',' ',(#3980));
#4000=PRODUCT_DEFINITION_FORMATION_WITH_SPECIFIED_SOURCE('','',#3980,
.BOUGHT.);
#4010=PRODUCT_DEFINITION('',' ',#4000,#3970);
#4020=PRODUCT_DEFINITION_SHAPE('','',#4010);
#4030=DIMENSIONAL_EXPONENTS(1.,0.,0.,0.,0.,0.,0.);
#4040=DIMENSIONAL_EXPONENTS(0.,0.,0.,0.,0.,0.,0.);
#4050=DIMENSIONAL_EXPONENTS(0.,0.,0.,0.,0.,0.,0.);
#4060=(LENGTH_UNIT() NAMED_UNIT(*) SI_UNIT(.MILLI.,.METRE.));
#4070=(NAMED_UNIT(*) PLANE_ANGLE_UNIT() SI_UNIT($,.RADIAN.));
#4080=(NAMED_UNIT(*) SI_UNIT($,.STERADIAN.) SOLID_ANGLE_UNIT());
#4090=(GEOMETRIC_REPRESENTATION_CONTEXT(3) 
GLOBAL_UNCERTAINTY_ASSIGNED_CONTEXT((#4100)) 
GLOBAL_UNIT_ASSIGNED_CONTEXT((#4060,#4070,#4080)) REPRESENTATION_CONTEXT
('',''));
#4100=UNCERTAINTY_MEASURE_WITH_UNIT(LENGTH_MEASURE(1.E-6),#4060,
'distance_accuracy_value','maximum gap value');
#4110=SHAPE_REPRESENTATION('',(#3600,#3920),#4090);
#4120=SHAPE_DEFINITION_REPRESENTATION(#4020,#4110);
#4130=(REPRESENTATION_RELATIONSHIP('','',#3780,#4110) 
REPRESENTATION_RELATIONSHIP_WITH_TRANSFORMATION(#3930) 
SHAPE_REPRESENTATION_RELATIONSHIP());
#4140=NEXT_ASSEMBLY_USAGE_OCCURRENCE('1','','SCB.4_PT',#4010,#3680,'');
#4150=PRODUCT_DEFINITION_SHAPE('','',#4140);
#4160=CONTEXT_DEPENDENT_SHAPE_REPRESENTATION(#4130,#4150);
ENDSEC;
END-ISO-10303-21;
