ISO-10303-21;
HEADER;
FILE_DESCRIPTION (( 'STEP AP203' ),
    '1' );
FILE_NAME ('01-02-1278.STEP',
    '2013-05-06T05:55:38',
    ( 'asennus' ),
    ( '' ),
    'SwSTEP 2.0',
    'SolidWorks 2013',
    '' );
FILE_SCHEMA (( 'CONFIG_CONTROL_DESIGN' ));
ENDSEC;

DATA;
#1 = CC_DESIGN_DATE_AND_TIME_ASSIGNMENT ( #91, #180, ( #210 ) ) ;
#2 = ORIENTED_EDGE ( 'NONE', *, *, #249, .T. ) ;
#3 = ORIENTED_EDGE ( 'NONE', *, *, #230, .T. ) ;
#4 = ORIENTED_EDGE ( 'NONE', *, *, #167, .T. ) ;
#5 = PERSON ( 'UNSPECIFIED', 'UNSPECIFIED', 'UNSPECIFIED', ('UNSPECIFIED'), ('UNSPECIFIED'), ('UNSPECIFIED') ) ;
#6 = DIRECTION ( 'NONE',  ( 0.0000000000000000000, 1.000000000000000000, 0.0000000000000000000 ) ) ;
#7 = DIRECTION ( 'NONE',  ( 0.0000000000000000000, -0.0000000000000000000, 1.000000000000000000 ) ) ;
#8 = ADVANCED_FACE ( 'NONE', ( #221 ), #183, .T. ) ;
#9 = ORIENTED_EDGE ( 'NONE', *, *, #218, .F. ) ;
#10 = CARTESIAN_POINT ( 'NONE',  ( 0.0000000000000000000, 2000.000000000000000, -5.000000000000000000 ) ) ;
#11 = PERSON_AND_ORGANIZATION_ROLE ( 'creator' ) ;
#12 = DIRECTION ( 'NONE',  ( 0.0000000000000000000, 1.000000000000000000, 0.0000000000000000000 ) ) ;
#13 = DATE_TIME_ROLE ( 'creation_date' ) ;
#14 = ORIENTED_EDGE ( 'NONE', *, *, #186, .F. ) ;
#15 = ORIENTED_EDGE ( 'NONE', *, *, #225, .T. ) ;
#16 = VERTEX_POINT ( 'NONE', #77 ) ;
#17 = PERSON_AND_ORGANIZATION ( #5, #142 ) ;
#18 = APPROVAL_STATUS ( 'not_yet_approved' ) ;
#19 = CARTESIAN_POINT ( 'NONE',  ( 0.0000000000000000000, 0.0000000000000000000, 0.0000000000000000000 ) ) ;
#20 = DIRECTION ( 'NONE',  ( -0.0000000000000000000, -1.000000000000000000, -0.0000000000000000000 ) ) ;
#21 = EDGE_LOOP ( 'NONE', ( #110, #179, #55, #68 ) ) ;
#22 = EDGE_LOOP ( 'NONE', ( #191, #189 ) ) ;
#23 = FACE_OUTER_BOUND ( 'NONE', #71, .T. ) ;
#24 = AXIS2_PLACEMENT_3D ( 'NONE', #50, #93, #64 ) ;
#25 = FACE_OUTER_BOUND ( 'NONE', #22, .T. ) ;
#26 = EDGE_LOOP ( 'NONE', ( #74, #4 ) ) ;
#27 = FACE_OUTER_BOUND ( 'NONE', #32, .T. ) ;
#28 = PRODUCT ( '01-02-1278', '01-02-1278', '', ( #258 ) ) ;
#29 = DIRECTION ( 'NONE',  ( 0.0000000000000000000, 0.0000000000000000000, 1.000000000000000000 ) ) ;
#30 = FACE_OUTER_BOUND ( 'NONE', #273, .T. ) ;
#31 = LINE ( 'NONE', #102, #190 ) ;
#32 = EDGE_LOOP ( 'NONE', ( #133, #14, #187, #59 ) ) ;
#33 = CIRCLE ( 'NONE', #139, 4.000000000000003600 ) ;
#34 = FACE_OUTER_BOUND ( 'NONE', #21, .T. ) ;
#35 = LINE ( 'NONE', #86, #135 ) ;
#36 = CONICAL_SURFACE ( 'NONE', #24, 5.000000000000000000, 0.7853981633975015700 ) ;
#37 = ORIENTED_EDGE ( 'NONE', *, *, #203, .F. ) ;
#38 = ADVANCED_FACE ( 'NONE', ( #25 ), #82, .T. ) ;
#39 = CARTESIAN_POINT ( 'NONE',  ( 0.0000000000000000000, 2000.000000000000000, 0.0000000000000000000 ) ) ;
#40 = APPROVAL_DATE_TIME ( #87, #124 ) ;
#41 = CONICAL_SURFACE ( 'NONE', #275, 3.999999999999781500, 0.7853981633972796400 ) ;
#42 = VERTEX_POINT ( 'NONE', #73 ) ;
#43 = CYLINDRICAL_SURFACE ( 'NONE', #151, 5.000000000000000000 ) ;
#44 = CIRCLE ( 'NONE', #114, 5.000000000000000000 ) ;
#45 = CIRCLE ( 'NONE', #158, 5.000000000000000000 ) ;
#46 = DIRECTION ( 'NONE',  ( 0.0000000000000000000, 0.0000000000000000000, -1.000000000000000000 ) ) ;
#47 = AXIS2_PLACEMENT_3D ( 'NONE', #69, #241, #89 ) ;
#48 = CONICAL_SURFACE ( 'NONE', #193, 5.000000000000000000, 0.7853981633975015700 ) ;
#49 = CARTESIAN_POINT ( 'NONE',  ( 5.510910596163091500E-016, 0.0000000000000000000, -4.000000000000003600 ) ) ;
#50 = CARTESIAN_POINT ( 'NONE',  ( 0.0000000000000000000, 0.9999999999998898700, 0.0000000000000000000 ) ) ;
#51 = EDGE_CURVE ( 'NONE', #42, #115, #272, .T. ) ;
#52 = DIRECTION ( 'NONE',  ( -0.0000000000000000000, -1.000000000000000000, -0.0000000000000000000 ) ) ;
#53 = CC_DESIGN_SECURITY_CLASSIFICATION ( #210, ( #234 ) ) ;
#54 = DIRECTION ( 'NONE',  ( 0.0000000000000000000, -1.000000000000000000, 0.0000000000000000000 ) ) ;
#55 = ORIENTED_EDGE ( 'NONE', *, *, #251, .F. ) ;
#56 = DIRECTION ( 'NONE',  ( -0.0000000000000000000, 1.000000000000000000, -0.0000000000000000000 ) ) ;
#57 = PRODUCT_DEFINITION ( 'UNKNOWN', '', #234, #229 ) ;
#58 = ORIENTED_EDGE ( 'NONE', *, *, #251, .T. ) ;
#59 = ORIENTED_EDGE ( 'NONE', *, *, #225, .F. ) ;
#60 = AXIS2_PLACEMENT_3D ( 'NONE', #163, #6, #212 ) ;
#61 = DIRECTION ( 'NONE',  ( 0.0000000000000000000, 1.000000000000000000, 0.0000000000000000000 ) ) ;
#62 = CARTESIAN_POINT ( 'NONE',  ( 0.0000000000000000000, 2000.000000000000000, 0.0000000000000000000 ) ) ;
#63 = LINE ( 'NONE', #219, #235 ) ;
#64 = DIRECTION ( 'NONE',  ( 0.0000000000000000000, 0.0000000000000000000, 1.000000000000000000 ) ) ;
#65 =( NAMED_UNIT ( * ) PLANE_ANGLE_UNIT ( ) SI_UNIT ( $, .RADIAN. ) );
#66 = APPROVAL_PERSON_ORGANIZATION ( #171, #222, #104 ) ;
#67 = PERSON_AND_ORGANIZATION ( #5, #142 ) ;
#68 = ORIENTED_EDGE ( 'NONE', *, *, #261, .F. ) ;
#69 = CARTESIAN_POINT ( 'NONE',  ( 0.0000000000000000000, 2000.000000000000000, 0.0000000000000000000 ) ) ;
#70 = VERTEX_POINT ( 'NONE', #118 ) ;
#71 = EDGE_LOOP ( 'NONE', ( #76, #113, #58, #206 ) ) ;
#72 = APPROVAL_PERSON_ORGANIZATION ( #154, #132, #121 ) ;
#73 = CARTESIAN_POINT ( 'NONE',  ( 5.510910596162955400E-016, 2000.000000000000000, 3.999999999999781500 ) ) ;
#74 = ORIENTED_EDGE ( 'NONE', *, *, #186, .T. ) ;
#75 = EDGE_LOOP ( 'NONE', ( #246, #208, #177, #188 ) ) ;
#76 = ORIENTED_EDGE ( 'NONE', *, *, #218, .T. ) ;
#77 = CARTESIAN_POINT ( 'NONE',  ( 6.123233995736766300E-016, 1998.999999999999500, 5.000000000000000000 ) ) ;
#78 = CALENDAR_DATE ( 2013, 6, 5 ) ;
#79 = CIRCLE ( 'NONE', #256, 5.000000000000000000 ) ;
#80 = ADVANCED_FACE ( 'NONE', ( #27 ), #48, .T. ) ;
#81 = DIRECTION ( 'NONE',  ( -0.0000000000000000000, -1.000000000000000000, -0.0000000000000000000 ) ) ;
#82 = PLANE ( 'NONE',  #83 ) ;
#83 = AXIS2_PLACEMENT_3D ( 'NONE', #39, #61, #97 ) ;
#84 = UNCERTAINTY_MEASURE_WITH_UNIT (LENGTH_MEASURE( 1.000000000000000100E-005 ), #255, 'distance_accuracy_value', 'NONE');
#85 = CARTESIAN_POINT ( 'NONE',  ( 0.0000000000000000000, 2000.000000000000000, -3.999999999999781500 ) ) ;
#86 = CARTESIAN_POINT ( 'NONE',  ( 4.898587196589144600E-016, 2000.000000000000000, 3.999999999999781500 ) ) ;
#87 = DATE_AND_TIME ( #200, #199 ) ;
#88 = AXIS2_PLACEMENT_3D ( 'NONE', #146, #106, #268 ) ;
#89 = DIRECTION ( 'NONE',  ( 0.0000000000000000000, 0.0000000000000000000, -1.000000000000000000 ) ) ;
#90 = COORDINATED_UNIVERSAL_TIME_OFFSET ( 2, 0, .AHEAD. ) ;
#91 = DATE_AND_TIME ( #211, #138 ) ;
#92 = COORDINATED_UNIVERSAL_TIME_OFFSET ( 2, 0, .AHEAD. ) ;
#93 = DIRECTION ( 'NONE',  ( -0.0000000000000000000, 1.000000000000000000, -0.0000000000000000000 ) ) ;
#94 = EDGE_LOOP ( 'NONE', ( #109, #2, #198, #15 ) ) ;
#95 = CALENDAR_DATE ( 2013, 6, 5 ) ;
#96 = VERTEX_POINT ( 'NONE', #148 ) ;
#97 = DIRECTION ( 'NONE',  ( 0.0000000000000000000, -0.0000000000000000000, 1.000000000000000000 ) ) ;
#98 = DIRECTION ( 'NONE',  ( -0.0000000000000000000, 1.000000000000000000, -0.0000000000000000000 ) ) ;
#99 = EDGE_CURVE ( 'NONE', #178, #96, #31, .T. ) ;
#100 = FACE_OUTER_BOUND ( 'NONE', #75, .T. ) ;
#101 = CONICAL_SURFACE ( 'NONE', #105, 3.999999999999781500, 0.7853981633972796400 ) ;
#102 = CARTESIAN_POINT ( 'NONE',  ( 6.123233995736766300E-016, 0.9999999999998898700, -5.000000000000000000 ) ) ;
#103 = ADVANCED_FACE ( 'NONE', ( #30 ), #41, .T. ) ;
#104 = APPROVAL_ROLE ( '' ) ;
#105 = AXIS2_PLACEMENT_3D ( 'NONE', #62, #54, #197 ) ;
#106 = DIRECTION ( 'NONE',  ( -0.0000000000000000000, -1.000000000000000000, -0.0000000000000000000 ) ) ;
#107 = DATE_AND_TIME ( #78, #176 ) ;
#108 = AXIS2_PLACEMENT_3D ( 'NONE', #169, #12, #7 ) ;
#109 = ORIENTED_EDGE ( 'NONE', *, *, #240, .F. ) ;
#110 = ORIENTED_EDGE ( 'NONE', *, *, #167, .F. ) ;
#111 = ADVANCED_BREP_SHAPE_REPRESENTATION ( '01-02-1278', ( #253, #127 ), #209 ) ;
#112 = EDGE_CURVE ( 'NONE', #115, #42, #117, .T. ) ;
#113 = ORIENTED_EDGE ( 'NONE', *, *, #240, .T. ) ;
#114 = AXIS2_PLACEMENT_3D ( 'NONE', #157, #56, #250 ) ;
#115 = VERTEX_POINT ( 'NONE', #85 ) ;
#116 = VECTOR ( 'NONE', #81, 1000.000000000000000 ) ;
#117 = CIRCLE ( 'NONE', #60, 3.999999999999781500 ) ;
#118 = CARTESIAN_POINT ( 'NONE',  ( 6.123233995736766300E-016, 0.9999999999998898700, 5.000000000000000000 ) ) ;
#119 = ADVANCED_FACE ( 'NONE', ( #34 ), #36, .T. ) ;
#120 = DIRECTION ( 'NONE',  ( 0.0000000000000000000, 0.0000000000000000000, 1.000000000000000000 ) ) ;
#121 = APPROVAL_ROLE ( '' ) ;
#122 = CIRCLE ( 'NONE', #88, 4.000000000000003600 ) ;
#123 = CARTESIAN_POINT ( 'NONE',  ( 0.0000000000000000000, 2000.000000000000000, 0.0000000000000000000 ) ) ;
#124 = APPROVAL ( #214, 'UNSPECIFIED' ) ;
#125 = VECTOR ( 'NONE', #20, 1000.000000000000000 ) ;
#126 = DIRECTION ( 'NONE',  ( 0.0000000000000000000, 0.0000000000000000000, 1.000000000000000000 ) ) ;
#127 = AXIS2_PLACEMENT_3D ( 'NONE', #19, #260, #220 ) ;
#128 = DIRECTION ( 'NONE',  ( 0.0000000000000000000, 1.000000000000000000, 0.0000000000000000000 ) ) ;
#129 = CC_DESIGN_PERSON_AND_ORGANIZATION_ASSIGNMENT ( #155, #205, ( #28 ) ) ;
#130 = DIRECTION ( 'NONE',  ( 0.0000000000000000000, 0.0000000000000000000, 1.000000000000000000 ) ) ;
#131 = FACE_OUTER_BOUND ( 'NONE', #26, .T. ) ;
#132 = APPROVAL ( #202, 'UNSPECIFIED' ) ;
#133 = ORIENTED_EDGE ( 'NONE', *, *, #99, .F. ) ;
#134 = CARTESIAN_POINT ( 'NONE',  ( 0.0000000000000000000, 0.9999999999998898700, 0.0000000000000000000 ) ) ;
#135 = VECTOR ( 'NONE', #227, 999.9999999999998900 ) ;
#136 = CC_DESIGN_APPROVAL ( #132, ( #57 ) ) ;
#137 = VECTOR ( 'NONE', #262, 1000.000000000000000 ) ;
#138 = LOCAL_TIME ( 8, 55, 38.00000000000000000, #92 ) ;
#139 = AXIS2_PLACEMENT_3D ( 'NONE', #223, #267, #224 ) ;
#140 = CC_DESIGN_PERSON_AND_ORGANIZATION_ASSIGNMENT ( #67, #195, ( #234 ) ) ;
#141 = APPROVAL_ROLE ( '' ) ;
#142 = ORGANIZATION ( 'UNSPECIFIED', 'UNSPECIFIED', '' ) ;
#143 = EDGE_CURVE ( 'NONE', #145, #96, #150, .T. ) ;
#144 = SHAPE_DEFINITION_REPRESENTATION ( #181, #111 ) ;
#145 = VERTEX_POINT ( 'NONE', #201 ) ;
#146 = CARTESIAN_POINT ( 'NONE',  ( 0.0000000000000000000, 0.0000000000000000000, 0.0000000000000000000 ) ) ;
#147 = DIRECTION ( 'NONE',  ( 0.0000000000000000000, 0.0000000000000000000, -1.000000000000000000 ) ) ;
#148 = CARTESIAN_POINT ( 'NONE',  ( 0.0000000000000000000, 0.9999999999998898700, -5.000000000000000000 ) ) ;
#149 = CC_DESIGN_APPROVAL ( #124, ( #210 ) ) ;
#150 = LINE ( 'NONE', #10, #116 ) ;
#151 = AXIS2_PLACEMENT_3D ( 'NONE', #215, #52, #46 ) ;
#152 = SECURITY_CLASSIFICATION_LEVEL ( 'unclassified' ) ;
#153 = LOCAL_TIME ( 8, 55, 38.00000000000000000, #170 ) ;
#154 = PERSON_AND_ORGANIZATION ( #5, #142 ) ;
#155 = PERSON_AND_ORGANIZATION ( #5, #142 ) ;
#156 = DIRECTION ( 'NONE',  ( 0.0000000000000000000, -1.000000000000000000, 0.0000000000000000000 ) ) ;
#157 = CARTESIAN_POINT ( 'NONE',  ( 0.0000000000000000000, 0.9999999999998898700, 0.0000000000000000000 ) ) ;
#158 = AXIS2_PLACEMENT_3D ( 'NONE', #236, #228, #232 ) ;
#159 = COORDINATED_UNIVERSAL_TIME_OFFSET ( 2, 0, .AHEAD. ) ;
#160 = PERSON_AND_ORGANIZATION ( #5, #142 ) ;
#161 = PERSON_AND_ORGANIZATION ( #5, #142 ) ;
#162 = APPROVAL_DATE_TIME ( #166, #222 ) ;
#163 = CARTESIAN_POINT ( 'NONE',  ( 0.0000000000000000000, 2000.000000000000000, 0.0000000000000000000 ) ) ;
#164 = ADVANCED_FACE ( 'NONE', ( #23 ), #43, .T. ) ;
#165 = PRODUCT_RELATED_PRODUCT_CATEGORY ( 'detail', '', ( #28 ) ) ;
#166 = DATE_AND_TIME ( #95, #153 ) ;
#167 = EDGE_CURVE ( 'NONE', #178, #274, #122, .T. ) ;
#168 = DIRECTION ( 'NONE',  ( 8.659560562355395100E-017, 0.7071067811865098300, -0.7071067811865852100 ) ) ;
#169 = CARTESIAN_POINT ( 'NONE',  ( 0.0000000000000000000, 0.0000000000000000000, 0.0000000000000000000 ) ) ;
#170 = COORDINATED_UNIVERSAL_TIME_OFFSET ( 2, 0, .AHEAD. ) ;
#171 = PERSON_AND_ORGANIZATION ( #5, #142 ) ;
#172 = DATE_AND_TIME ( #226, #174 ) ;
#173 = CC_DESIGN_DATE_AND_TIME_ASSIGNMENT ( #172, #13, ( #57 ) ) ;
#174 = LOCAL_TIME ( 8, 55, 38.00000000000000000, #159 ) ;
#175 = COORDINATED_UNIVERSAL_TIME_OFFSET ( 2, 0, .AHEAD. ) ;
#176 = LOCAL_TIME ( 8, 55, 38.00000000000000000, #175 ) ;
#177 = ORIENTED_EDGE ( 'NONE', *, *, #203, .T. ) ;
#178 = VERTEX_POINT ( 'NONE', #49 ) ;
#179 = ORIENTED_EDGE ( 'NONE', *, *, #99, .T. ) ;
#180 = DATE_TIME_ROLE ( 'classification_date' ) ;
#181 = PRODUCT_DEFINITION_SHAPE ( 'NONE', 'NONE',  #57 ) ;
#182 = APPROVAL_DATE_TIME ( #107, #132 ) ;
#183 = CYLINDRICAL_SURFACE ( 'NONE', #47, 5.000000000000000000 ) ;
#184 = CC_DESIGN_PERSON_AND_ORGANIZATION_ASSIGNMENT ( #160, #196, ( #210 ) ) ;
#185 = DIRECTION ( 'NONE',  ( 0.0000000000000000000, -0.7071067811866669200, -0.7071067811864282200 ) ) ;
#186 = EDGE_CURVE ( 'NONE', #274, #178, #33, .T. ) ;
#187 = ORIENTED_EDGE ( 'NONE', *, *, #261, .T. ) ;
#188 = ORIENTED_EDGE ( 'NONE', *, *, #249, .F. ) ;
#189 = ORIENTED_EDGE ( 'NONE', *, *, #51, .T. ) ;
#190 = VECTOR ( 'NONE', #168, 1000.000000000000000 ) ;
#191 = ORIENTED_EDGE ( 'NONE', *, *, #112, .T. ) ;
#192 = APPROVAL_PERSON_ORGANIZATION ( #207, #124, #141 ) ;
#193 = AXIS2_PLACEMENT_3D ( 'NONE', #134, #98, #120 ) ;
#194 = ADVANCED_FACE ( 'NONE', ( #100 ), #101, .T. ) ;
#195 = PERSON_AND_ORGANIZATION_ROLE ( 'creator' ) ;
#196 = PERSON_AND_ORGANIZATION_ROLE ( 'classification_officer' ) ;
#197 = DIRECTION ( 'NONE',  ( 0.0000000000000000000, 0.0000000000000000000, -1.000000000000000000 ) ) ;
#198 = ORIENTED_EDGE ( 'NONE', *, *, #143, .T. ) ;
#199 = LOCAL_TIME ( 8, 55, 38.00000000000000000, #90 ) ;
#200 = CALENDAR_DATE ( 2013, 6, 5 ) ;
#201 = CARTESIAN_POINT ( 'NONE',  ( 0.0000000000000000000, 1998.999999999999500, -5.000000000000000000 ) ) ;
#202 = APPROVAL_STATUS ( 'not_yet_approved' ) ;
#203 = EDGE_CURVE ( 'NONE', #115, #145, #63, .T. ) ;
#204 = APPLICATION_CONTEXT ( 'configuration controlled 3d designs of mechanical parts and assemblies' ) ;
#205 = PERSON_AND_ORGANIZATION_ROLE ( 'design_owner' ) ;
#206 = ORIENTED_EDGE ( 'NONE', *, *, #143, .F. ) ;
#207 = PERSON_AND_ORGANIZATION ( #5, #142 ) ;
#208 = ORIENTED_EDGE ( 'NONE', *, *, #112, .F. ) ;
#209 =( GEOMETRIC_REPRESENTATION_CONTEXT ( 3 ) GLOBAL_UNCERTAINTY_ASSIGNED_CONTEXT ( ( #84 ) ) GLOBAL_UNIT_ASSIGNED_CONTEXT ( ( #255, #65, #266 ) ) REPRESENTATION_CONTEXT ( 'NONE', 'WORKASPACE' ) );
#210 = SECURITY_CLASSIFICATION ( '', '', #152 ) ;
#211 = CALENDAR_DATE ( 2013, 6, 5 ) ;
#212 = DIRECTION ( 'NONE',  ( 0.0000000000000000000, 0.0000000000000000000, 1.000000000000000000 ) ) ;
#213 = CC_DESIGN_APPROVAL ( #222, ( #234 ) ) ;
#214 = APPROVAL_STATUS ( 'not_yet_approved' ) ;
#215 = CARTESIAN_POINT ( 'NONE',  ( 0.0000000000000000000, 2000.000000000000000, 0.0000000000000000000 ) ) ;
#216 = CARTESIAN_POINT ( 'NONE',  ( 0.0000000000000000000, 0.0000000000000000000, 4.000000000000003600 ) ) ;
#217 = CLOSED_SHELL ( 'NONE', ( #119, #103, #164, #8, #38, #264, #194, #80 ) ) ;
#218 = EDGE_CURVE ( 'NONE', #145, #16, #45, .T. ) ;
#219 = CARTESIAN_POINT ( 'NONE',  ( 0.0000000000000000000, 2000.000000000000000, -3.999999999999781500 ) ) ;
#220 = DIRECTION ( 'NONE',  ( 1.000000000000000000, 0.0000000000000000000, 0.0000000000000000000 ) ) ;
#221 = FACE_OUTER_BOUND ( 'NONE', #94, .T. ) ;
#222 = APPROVAL ( #18, 'UNSPECIFIED' ) ;
#223 = CARTESIAN_POINT ( 'NONE',  ( 0.0000000000000000000, 0.0000000000000000000, 0.0000000000000000000 ) ) ;
#224 = DIRECTION ( 'NONE',  ( 0.0000000000000000000, 0.0000000000000000000, 1.000000000000000000 ) ) ;
#225 = EDGE_CURVE ( 'NONE', #96, #70, #44, .T. ) ;
#226 = CALENDAR_DATE ( 2013, 6, 5 ) ;
#227 = DIRECTION ( 'NONE',  ( 8.659560562353473500E-017, -0.7071067811866669200, 0.7071067811864282200 ) ) ;
#228 = DIRECTION ( 'NONE',  ( 0.0000000000000000000, -1.000000000000000000, 0.0000000000000000000 ) ) ;
#229 = DESIGN_CONTEXT ( 'detailed design', #204, 'design' ) ;
#230 = EDGE_CURVE ( 'NONE', #42, #16, #35, .T. ) ;
#231 = CC_DESIGN_PERSON_AND_ORGANIZATION_ASSIGNMENT ( #161, #244, ( #234 ) ) ;
#232 = DIRECTION ( 'NONE',  ( 0.0000000000000000000, 0.0000000000000000000, 1.000000000000000000 ) ) ;
#233 = CC_DESIGN_PERSON_AND_ORGANIZATION_ASSIGNMENT ( #17, #11, ( #57 ) ) ;
#234 = PRODUCT_DEFINITION_FORMATION_WITH_SPECIFIED_SOURCE ( 'ANY', '', #28, .NOT_KNOWN. ) ;
#235 = VECTOR ( 'NONE', #185, 999.9999999999998900 ) ;
#236 = CARTESIAN_POINT ( 'NONE',  ( 0.0000000000000000000, 1998.999999999999500, 0.0000000000000000000 ) ) ;
#237 = CARTESIAN_POINT ( 'NONE',  ( 0.0000000000000000000, 0.9999999999998898700, 5.000000000000000000 ) ) ;
#238 = CARTESIAN_POINT ( 'NONE',  ( 0.0000000000000000000, 2000.000000000000000, 0.0000000000000000000 ) ) ;
#239 = CARTESIAN_POINT ( 'NONE',  ( 6.123233995736766300E-016, 2000.000000000000000, 5.000000000000000000 ) ) ;
#240 = EDGE_CURVE ( 'NONE', #16, #70, #252, .T. ) ;
#241 = DIRECTION ( 'NONE',  ( -0.0000000000000000000, -1.000000000000000000, -0.0000000000000000000 ) ) ;
#242 = CARTESIAN_POINT ( 'NONE',  ( 0.0000000000000000000, 0.9999999999998898700, 0.0000000000000000000 ) ) ;
#243 = LINE ( 'NONE', #237, #137 ) ;
#244 = PERSON_AND_ORGANIZATION_ROLE ( 'design_supplier' ) ;
#245 = ORIENTED_EDGE ( 'NONE', *, *, #51, .F. ) ;
#246 = ORIENTED_EDGE ( 'NONE', *, *, #230, .F. ) ;
#247 = PLANE ( 'NONE',  #108 ) ;
#248 = DIRECTION ( 'NONE',  ( -0.0000000000000000000, 1.000000000000000000, -0.0000000000000000000 ) ) ;
#249 = EDGE_CURVE ( 'NONE', #16, #145, #79, .T. ) ;
#250 = DIRECTION ( 'NONE',  ( 0.0000000000000000000, 0.0000000000000000000, 1.000000000000000000 ) ) ;
#251 = EDGE_CURVE ( 'NONE', #70, #96, #259, .T. ) ;
#252 = LINE ( 'NONE', #239, #125 ) ;
#253 = MANIFOLD_SOLID_BREP ( 'Chamfer1', #217 ) ;
#254 = APPLICATION_PROTOCOL_DEFINITION ( 'international standard', 'config_control_design', 1994, #204 ) ;
#255 =( LENGTH_UNIT ( ) NAMED_UNIT ( * ) SI_UNIT ( .MILLI., .METRE. ) );
#256 = AXIS2_PLACEMENT_3D ( 'NONE', #271, #269, #126 ) ;
#257 = APPLICATION_PROTOCOL_DEFINITION ( 'international standard', 'config_control_design', 1994, #263 ) ;
#258 = MECHANICAL_CONTEXT ( 'NONE', #263, 'mechanical' ) ;
#259 = CIRCLE ( 'NONE', #270, 5.000000000000000000 ) ;
#260 = DIRECTION ( 'NONE',  ( 0.0000000000000000000, 0.0000000000000000000, 1.000000000000000000 ) ) ;
#261 = EDGE_CURVE ( 'NONE', #274, #70, #243, .T. ) ;
#262 = DIRECTION ( 'NONE',  ( 0.0000000000000000000, 0.7071067811865098300, 0.7071067811865852100 ) ) ;
#263 = APPLICATION_CONTEXT ( 'configuration controlled 3d designs of mechanical parts and assemblies' ) ;
#264 = ADVANCED_FACE ( 'NONE', ( #131 ), #247, .F. ) ;
#265 = AXIS2_PLACEMENT_3D ( 'NONE', #123, #128, #130 ) ;
#266 =( NAMED_UNIT ( * ) SI_UNIT ( $, .STERADIAN. ) SOLID_ANGLE_UNIT ( ) );
#267 = DIRECTION ( 'NONE',  ( -0.0000000000000000000, -1.000000000000000000, -0.0000000000000000000 ) ) ;
#268 = DIRECTION ( 'NONE',  ( 0.0000000000000000000, 0.0000000000000000000, 1.000000000000000000 ) ) ;
#269 = DIRECTION ( 'NONE',  ( 0.0000000000000000000, -1.000000000000000000, 0.0000000000000000000 ) ) ;
#270 = AXIS2_PLACEMENT_3D ( 'NONE', #242, #248, #29 ) ;
#271 = CARTESIAN_POINT ( 'NONE',  ( 0.0000000000000000000, 1998.999999999999500, 0.0000000000000000000 ) ) ;
#272 = CIRCLE ( 'NONE', #265, 3.999999999999781500 ) ;
#273 = EDGE_LOOP ( 'NONE', ( #245, #3, #9, #37 ) ) ;
#274 = VERTEX_POINT ( 'NONE', #216 ) ;
#275 = AXIS2_PLACEMENT_3D ( 'NONE', #238, #156, #147 ) ;
ENDSEC;
END-ISO-10303-21;
