ISO-10303-21;
HEADER;
FILE_DESCRIPTION (( 'STEP AP203' ),
    '1' );
FILE_NAME ('Êðûøêà íà îòâåòâèòåëü Ò-îáðàçíûé âåðòèêàëüíûé TDSR_38404.STEP',
    '2012-11-09T08:44:29',
    ( 'Àñååâ' ),
    ( '' ),
    'SwSTEP 2.0',
    'SolidWorks 2012',
    '' );
FILE_SCHEMA (( 'CONFIG_CONTROL_DESIGN' ));
ENDSEC;

DATA;
#1 = DIRECTION ( 'NONE',  ( 1.000000000000000000, 0.0000000000000000000, -0.0000000000000000000 ) ) ;
#2 = PLANE ( 'NONE',  #129 ) ;
#3 = DIRECTION ( 'NONE',  ( 0.0000000000000000000, -0.0000000000000000000, 1.000000000000000000 ) ) ;
#4 = CARTESIAN_POINT ( 'NONE',  ( 151.5999999999999900, 0.0000000000000000000, 410.0000000000000000 ) ) ;
#5 = PLANE ( 'NONE',  #130 ) ;
#6 = CARTESIAN_POINT ( 'NONE',  ( -151.5999999999999900, -14.00000000000000000, 410.0000000000000000 ) ) ;
#7 = CARTESIAN_POINT ( 'NONE',  ( -151.0000000000000000, 0.0000000000000000000, 410.0000000000000000 ) ) ;
#8 = DIRECTION ( 'NONE',  ( 0.0000000000000000000, 0.0000000000000000000, 1.000000000000000000 ) ) ;
#9 = DIRECTION ( 'NONE',  ( -1.000000000000000000, 0.0000000000000000000, 0.0000000000000000000 ) ) ;
#10 = DIRECTION ( 'NONE',  ( -1.000000000000000000, 0.0000000000000000000, 0.0000000000000000000 ) ) ;
#11 = DIRECTION ( 'NONE',  ( 0.0000000000000000000, 0.0000000000000000000, 1.000000000000000000 ) ) ;
#12 = PLANE ( 'NONE',  #131 ) ;
#13 = DIRECTION ( 'NONE',  ( 0.0000000000000000000, 1.000000000000000000, 0.0000000000000000000 ) ) ;
#14 = DIRECTION ( 'NONE',  ( -0.0000000000000000000, 0.0000000000000000000, -1.000000000000000000 ) ) ;
#15 = DIRECTION ( 'NONE',  ( 1.000000000000000000, 0.0000000000000000000, -0.0000000000000000000 ) ) ;
#16 = DIRECTION ( 'NONE',  ( 0.0000000000000000000, 1.000000000000000000, 0.0000000000000000000 ) ) ;
#17 = PLANE ( 'NONE',  #132 ) ;
#18 = CARTESIAN_POINT ( 'NONE',  ( 1.734723475976807100E-015, 0.5999999999999999800, 14.99999999999999300 ) ) ;
#19 = DIRECTION ( 'NONE',  ( 0.0000000000000000000, -0.0000000000000000000, -1.000000000000000000 ) ) ;
#20 = DIRECTION ( 'NONE',  ( 0.0000000000000000000, -1.000000000000000000, 0.0000000000000000000 ) ) ;
#21 = CARTESIAN_POINT ( 'NONE',  ( -151.5999999999999900, 0.0000000000000000000, 410.0000000000000000 ) ) ;
#22 = CARTESIAN_POINT ( 'NONE',  ( 151.0000000000000000, 0.0000000000000000000, 410.0000000000000000 ) ) ;
#23 = PLANE ( 'NONE',  #133 ) ;
#24 = CARTESIAN_POINT ( 'NONE',  ( -151.0000000000000000, 0.0000000000000000000, 410.0000000000000000 ) ) ;
#25 = CARTESIAN_POINT ( 'NONE',  ( 151.5999999999999900, -14.00000000000000000, 410.0000000000000000 ) ) ;
#26 = CARTESIAN_POINT ( 'NONE',  ( 0.0000000000000000000, -14.00099999999999900, 395.0000000000000000 ) ) ;
#27 = DIRECTION ( 'NONE',  ( 0.0000000000000000000, 0.0000000000000000000, 1.000000000000000000 ) ) ;
#28 = DIRECTION ( 'NONE',  ( -1.000000000000000000, 0.0000000000000000000, 0.0000000000000000000 ) ) ;
#29 = DIRECTION ( 'NONE',  ( -0.0000000000000000000, 1.000000000000000000, -0.0000000000000000000 ) ) ;
#30 = PLANE ( 'NONE',  #135 ) ;
#31 = DIRECTION ( 'NONE',  ( 0.0000000000000000000, 0.0000000000000000000, -1.000000000000000000 ) ) ;
#32 = DIRECTION ( 'NONE',  ( -1.000000000000000000, 0.0000000000000000000, 0.0000000000000000000 ) ) ;
#33 = DIRECTION ( 'NONE',  ( -0.0000000000000000000, 0.0000000000000000000, -1.000000000000000000 ) ) ;
#34 = DIRECTION ( 'NONE',  ( 0.0000000000000000000, 0.0000000000000000000, 1.000000000000000000 ) ) ;
#35 = PLANE ( 'NONE',  #136 ) ;
#36 = DIRECTION ( 'NONE',  ( -1.000000000000000000, 0.0000000000000000000, 0.0000000000000000000 ) ) ;
#37 = DIRECTION ( 'NONE',  ( -0.0000000000000000000, 1.000000000000000000, -0.0000000000000000000 ) ) ;
#38 = DIRECTION ( 'NONE',  ( -0.0000000000000000000, 0.0000000000000000000, -1.000000000000000000 ) ) ;
#39 = CARTESIAN_POINT ( 'NONE',  ( -151.0000000000000000, 0.0000000000000000000, 410.0000000000000000 ) ) ;
#40 = CARTESIAN_POINT ( 'NONE',  ( 0.0000000000000000000, 0.5999999999999999800, 395.0000000000000000 ) ) ;
#41 = PLANE ( 'NONE',  #144 ) ;
#42 = CARTESIAN_POINT ( 'NONE',  ( -151.0000000000000000, 0.0000000000000000000, 0.0000000000000000000 ) ) ;
#43 = DIRECTION ( 'NONE',  ( 0.0000000000000000000, -0.0000000000000000000, -1.000000000000000000 ) ) ;
#44 = DIRECTION ( 'NONE',  ( 0.0000000000000000000, -1.000000000000000000, 0.0000000000000000000 ) ) ;
#45 = CARTESIAN_POINT ( 'NONE',  ( 0.0000000000000000000, 0.0000000000000000000, 0.0000000000000000000 ) ) ;
#46 = CARTESIAN_POINT ( 'NONE',  ( 0.0000000000000000000, 0.0000000000000000000, 410.0000000000000000 ) ) ;
#47 = PLANE ( 'NONE',  #145 ) ;
#48 = CARTESIAN_POINT ( 'NONE',  ( 1.734723475976807100E-015, -14.00099999999999900, 14.99999999999999300 ) ) ;
#49 = CARTESIAN_POINT ( 'NONE',  ( -151.0000000000000000, -14.00000000000000000, 410.0000000000000000 ) ) ;
#50 = DIRECTION ( 'NONE',  ( -0.0000000000000000000, 1.000000000000000000, -0.0000000000000000000 ) ) ;
#51 = CARTESIAN_POINT ( 'NONE',  ( 151.0000000000000000, -14.00000000000000000, 410.0000000000000000 ) ) ;
#52 = DIRECTION ( 'NONE',  ( 0.0000000000000000000, 0.0000000000000000000, 1.000000000000000000 ) ) ;
#53 = CARTESIAN_POINT ( 'NONE',  ( 151.5999999999999900, 0.5999999999999999800, 410.0000000000000000 ) ) ;
#54 = CARTESIAN_POINT ( 'NONE',  ( -151.5999999999999900, 0.5999999999999999800, 410.0000000000000000 ) ) ;
#55 = CARTESIAN_POINT ( 'NONE',  ( -151.0000000000000000, -14.00000000000000000, 0.0000000000000000000 ) ) ;
#56 = DIRECTION ( 'NONE',  ( -0.0000000000000000000, -0.0000000000000000000, -1.000000000000000000 ) ) ;
#57 = CARTESIAN_POINT ( 'NONE',  ( -151.0000000000000000, 0.0000000000000000000, 410.0000000000000000 ) ) ;
#58 = CARTESIAN_POINT ( 'NONE',  ( -151.5999999999999900, -14.00000000000000000, 410.0000000000000000 ) ) ;
#59 = CARTESIAN_POINT ( 'NONE',  ( -151.0000000000000000, -14.00000000000000000, 410.0000000000000000 ) ) ;
#60 = CARTESIAN_POINT ( 'NONE',  ( 151.5999999999999900, -14.00000000000000000, 0.0000000000000000000 ) ) ;
#61 = CARTESIAN_POINT ( 'NONE',  ( 151.0000000000000000, -14.00000000000000000, 0.0000000000000000000 ) ) ;
#62 = CARTESIAN_POINT ( 'NONE',  ( 151.0000000000000000, 0.0000000000000000000, 0.0000000000000000000 ) ) ;
#63 = CARTESIAN_POINT ( 'NONE',  ( -151.0000000000000000, 0.0000000000000000000, 0.0000000000000000000 ) ) ;
#64 = CARTESIAN_POINT ( 'NONE',  ( 151.0000000000000000, 0.0000000000000000000, 410.0000000000000000 ) ) ;
#65 = CARTESIAN_POINT ( 'NONE',  ( -151.5999999999999900, 0.5999999999999999800, 0.0000000000000000000 ) ) ;
#66 = DIRECTION ( 'NONE',  ( 1.000000000000000000, 0.0000000000000000000, 0.0000000000000000000 ) ) ;
#67 = DIRECTION ( 'NONE',  ( -0.0000000000000000000, -1.000000000000000000, 0.0000000000000000000 ) ) ;
#68 = DIRECTION ( 'NONE',  ( -0.0000000000000000000, -0.0000000000000000000, -1.000000000000000000 ) ) ;
#69 = CARTESIAN_POINT ( 'NONE',  ( 151.5999999999999900, -14.00000000000000000, 410.0000000000000000 ) ) ;
#70 = CARTESIAN_POINT ( 'NONE',  ( -151.5999999999999900, -14.00000000000000000, 0.0000000000000000000 ) ) ;
#71 = DIRECTION ( 'NONE',  ( -0.0000000000000000000, -0.0000000000000000000, -1.000000000000000000 ) ) ;
#72 = DIRECTION ( 'NONE',  ( 0.0000000000000000000, 0.0000000000000000000, 1.000000000000000000 ) ) ;
#73 = DIRECTION ( 'NONE',  ( -0.0000000000000000000, -1.000000000000000000, -0.0000000000000000000 ) ) ;
#74 = CARTESIAN_POINT ( 'NONE',  ( 1.734723475976807100E-015, 0.0000000000000000000, 14.99999999999999300 ) ) ;
#75 = CARTESIAN_POINT ( 'NONE',  ( -151.0000000000000000, -14.00000000000000000, 410.0000000000000000 ) ) ;
#76 = CARTESIAN_POINT ( 'NONE',  ( 151.5999999999999900, 0.5999999999999999800, 0.0000000000000000000 ) ) ;
#77 = CARTESIAN_POINT ( 'NONE',  ( 151.5999999999999900, 0.5999999999999999800, 410.0000000000000000 ) ) ;
#78 = DIRECTION ( 'NONE',  ( -0.0000000000000000000, -1.000000000000000000, 0.0000000000000000000 ) ) ;
#79 = DIRECTION ( 'NONE',  ( 0.0000000000000000000, 1.000000000000000000, 0.0000000000000000000 ) ) ;
#80 = CARTESIAN_POINT ( 'NONE',  ( -151.5999999999999900, 0.0000000000000000000, 410.0000000000000000 ) ) ;
#81 = DIRECTION ( 'NONE',  ( 0.0000000000000000000, 1.000000000000000000, 0.0000000000000000000 ) ) ;
#82 = CARTESIAN_POINT ( 'NONE',  ( 151.5999999999999900, 0.0000000000000000000, 0.0000000000000000000 ) ) ;
#83 = CARTESIAN_POINT ( 'NONE',  ( -151.5999999999999900, 0.0000000000000000000, 0.0000000000000000000 ) ) ;
#84 = DIRECTION ( 'NONE',  ( -0.0000000000000000000, 1.000000000000000000, -0.0000000000000000000 ) ) ;
#85 = DIRECTION ( 'NONE',  ( -1.000000000000000000, 0.0000000000000000000, 0.0000000000000000000 ) ) ;
#86 = CARTESIAN_POINT ( 'NONE',  ( -151.0000000000000000, -14.00000000000000000, 410.0000000000000000 ) ) ;
#87 = DIRECTION ( 'NONE',  ( 1.000000000000000000, 0.0000000000000000000, 0.0000000000000000000 ) ) ;
#88 = DIRECTION ( 'NONE',  ( 0.0000000000000000000, 0.0000000000000000000, 1.000000000000000000 ) ) ;
#89 = DIRECTION ( 'NONE',  ( -0.0000000000000000000, -1.000000000000000000, -0.0000000000000000000 ) ) ;
#90 = DIRECTION ( 'NONE',  ( -0.0000000000000000000, -0.0000000000000000000, -1.000000000000000000 ) ) ;
#91 = DIRECTION ( 'NONE',  ( -1.000000000000000000, 0.0000000000000000000, 0.0000000000000000000 ) ) ;
#92 = DIRECTION ( 'NONE',  ( -0.0000000000000000000, -0.0000000000000000000, -1.000000000000000000 ) ) ;
#93 = CARTESIAN_POINT ( 'NONE',  ( 151.5999999999999900, 0.0000000000000000000, 410.0000000000000000 ) ) ;
#94 = CARTESIAN_POINT ( 'NONE',  ( 0.0000000000000000000, 0.0000000000000000000, 395.0000000000000000 ) ) ;
#95 = CARTESIAN_POINT ( 'NONE',  ( 151.5999999999999900, -14.00000000000000000, 0.0000000000000000000 ) ) ;
#96 = CARTESIAN_POINT ( 'NONE',  ( -151.0000000000000000, 0.0000000000000000000, 410.0000000000000000 ) ) ;
#97 = DIRECTION ( 'NONE',  ( -0.0000000000000000000, -0.0000000000000000000, -1.000000000000000000 ) ) ;
#98 = CARTESIAN_POINT ( 'NONE',  ( -151.0000000000000000, 0.0000000000000000000, 410.0000000000000000 ) ) ;
#99 = CARTESIAN_POINT ( 'NONE',  ( 151.5999999999999900, -14.00000000000000000, 410.0000000000000000 ) ) ;
#100 = CARTESIAN_POINT ( 'NONE',  ( -151.5999999999999900, 0.5999999999999999800, 410.0000000000000000 ) ) ;
#101 = DIRECTION ( 'NONE',  ( -0.0000000000000000000, -0.0000000000000000000, -1.000000000000000000 ) ) ;
#102 = DIRECTION ( 'NONE',  ( -0.0000000000000000000, -0.0000000000000000000, -1.000000000000000000 ) ) ;
#103 = CARTESIAN_POINT ( 'NONE',  ( -151.0000000000000000, 0.5999999999999999800, 410.0000000000000000 ) ) ;
#104 = CARTESIAN_POINT ( 'NONE',  ( 151.0000000000000000, 0.0000000000000000000, 410.0000000000000000 ) ) ;
#105 = CARTESIAN_POINT ( 'NONE',  ( 151.0000000000000000, -14.00000000000000000, 410.0000000000000000 ) ) ;
#106 = CARTESIAN_POINT ( 'NONE',  ( -151.0000000000000000, 0.0000000000000000000, 0.0000000000000000000 ) ) ;
#107 = DIRECTION ( 'NONE',  ( 1.000000000000000000, 0.0000000000000000000, 0.0000000000000000000 ) ) ;
#108 = CARTESIAN_POINT ( 'NONE',  ( 151.5999999999999900, -14.00000000000000000, 410.0000000000000000 ) ) ;
#109 = DIRECTION ( 'NONE',  ( -0.0000000000000000000, 1.000000000000000000, -0.0000000000000000000 ) ) ;
#110 = DIRECTION ( 'NONE',  ( 0.0000000000000000000, -1.000000000000000000, 0.0000000000000000000 ) ) ;
#111 = CARTESIAN_POINT ( 'NONE',  ( 151.0000000000000000, 0.0000000000000000000, 410.0000000000000000 ) ) ;
#112 = DIRECTION ( 'NONE',  ( -1.000000000000000000, 0.0000000000000000000, 0.0000000000000000000 ) ) ;
#113 = CARTESIAN_POINT ( 'NONE',  ( 151.0000000000000000, 0.0000000000000000000, 0.0000000000000000000 ) ) ;
#114 = DIRECTION ( 'NONE',  ( 0.0000000000000000000, -1.000000000000000000, 0.0000000000000000000 ) ) ;
#115 = CARTESIAN_POINT ( 'NONE',  ( -151.0000000000000000, -14.00000000000000000, 0.0000000000000000000 ) ) ;
#116 = DIRECTION ( 'NONE',  ( 1.000000000000000000, 0.0000000000000000000, 0.0000000000000000000 ) ) ;
#117 = CARTESIAN_POINT ( 'NONE',  ( -151.0000000000000000, 0.5999999999999999800, 0.0000000000000000000 ) ) ;
#118 = CC_DESIGN_DATE_AND_TIME_ASSIGNMENT ( #186, #405, ( #122 ) ) ;
#119 = CC_DESIGN_PERSON_AND_ORGANIZATION_ASSIGNMENT ( #190, #428, ( #122 ) ) ;
#120 = CC_DESIGN_APPROVAL ( #121, ( #122 ) ) ;
#121 = APPROVAL ( #433, 'UNSPECIFIED' ) ;
#122 = PRODUCT_DEFINITION ( 'UNKNOWN', '', #155, #403 ) ;
#123 = CC_DESIGN_PERSON_AND_ORGANIZATION_ASSIGNMENT ( #198, #419, ( #385 ) ) ;
#124 = AXIS2_PLACEMENT_3D ( 'NONE', #415, #414, #408 ) ;
#125 = CC_DESIGN_SECURITY_CLASSIFICATION ( #139, ( #155 ) ) ;
#126 = PRODUCT_RELATED_PRODUCT_CATEGORY ( 'detail', '', ( #385 ) ) ;
#127 = AXIS2_PLACEMENT_3D ( 'NONE', #427, #424, #422 ) ;
#128 =( GEOMETRIC_REPRESENTATION_CONTEXT ( 3 ) GLOBAL_UNCERTAINTY_ASSIGNED_CONTEXT ( ( #388 ) ) GLOBAL_UNIT_ASSIGNED_CONTEXT ( ( #412, #410, #430 ) ) REPRESENTATION_CONTEXT ( 'NONE', 'WORKASPACE' ) );
#129 = AXIS2_PLACEMENT_3D ( 'NONE', #4, #1, #426 ) ;
#130 = AXIS2_PLACEMENT_3D ( 'NONE', #7, #16, #3 ) ;
#131 = AXIS2_PLACEMENT_3D ( 'NONE', #21, #10, #8 ) ;
#132 = AXIS2_PLACEMENT_3D ( 'NONE', #22, #15, #14 ) ;
#133 = AXIS2_PLACEMENT_3D ( 'NONE', #25, #20, #19 ) ;
#134 = AXIS2_PLACEMENT_3D ( 'NONE', #26, #29, #34 ) ;
#135 = AXIS2_PLACEMENT_3D ( 'NONE', #39, #28, #27 ) ;
#136 = AXIS2_PLACEMENT_3D ( 'NONE', #45, #33, #32 ) ;
#137 = CC_DESIGN_APPROVAL ( #138, ( #139 ) ) ;
#138 = APPROVAL ( #404, 'UNSPECIFIED' ) ;
#139 = SECURITY_CLASSIFICATION ( '', '', #436 ) ;
#140 = CC_DESIGN_PERSON_AND_ORGANIZATION_ASSIGNMENT ( #377, #417, ( #155 ) ) ;
#141 = APPROVAL ( #434, 'UNSPECIFIED' ) ;
#142 = CC_DESIGN_APPROVAL ( #141, ( #155 ) ) ;
#143 = CC_DESIGN_PERSON_AND_ORGANIZATION_ASSIGNMENT ( #278, #431, ( #155 ) ) ;
#144 = AXIS2_PLACEMENT_3D ( 'NONE', #46, #38, #36 ) ;
#145 = AXIS2_PLACEMENT_3D ( 'NONE', #49, #44, #43 ) ;
#146 = AXIS2_PLACEMENT_3D ( 'NONE', #48, #50, #52 ) ;
#147 = AXIS2_PLACEMENT_3D ( 'NONE', #74, #73, #72 ) ;
#148 = AXIS2_PLACEMENT_3D ( 'NONE', #94, #89, #88 ) ;
#149 = AXIS2_PLACEMENT_3D ( 'NONE', #18, #13, #11 ) ;
#150 = AXIS2_PLACEMENT_3D ( 'NONE', #40, #37, #31 ) ;
#151 = EDGE_CURVE ( 'NONE', #282, #285, #275, .T. ) ;
#152 = EDGE_CURVE ( 'NONE', #281, #282, #369, .T. ) ;
#153 = EDGE_CURVE ( 'NONE', #366, #285, #276, .T. ) ;
#154 = EDGE_CURVE ( 'NONE', #280, #282, #273, .T. ) ;
#155 = PRODUCT_DEFINITION_FORMATION_WITH_SPECIFIED_SOURCE ( 'ANY', '', #385, .NOT_KNOWN. ) ;
#156 = EDGE_CURVE ( 'NONE', #287, #285, #269, .T. ) ;
#157 = EDGE_CURVE ( 'NONE', #279, #287, #271, .T. ) ;
#158 = EDGE_CURVE ( 'NONE', #279, #366, #267, .T. ) ;
#159 = EDGE_CURVE ( 'NONE', #277, #287, #263, .T. ) ;
#160 = EDGE_CURVE ( 'NONE', #293, #277, #261, .T. ) ;
#161 = EDGE_CURVE ( 'NONE', #293, #279, #265, .T. ) ;
#162 = EDGE_CURVE ( 'NONE', #206, #206, #257, .T. ) ;
#163 = EDGE_CURVE ( 'NONE', #202, #202, #253, .T. ) ;
#164 = EDGE_CURVE ( 'NONE', #288, #289, #255, .T. ) ;
#165 = EDGE_CURVE ( 'NONE', #289, #286, #259, .T. ) ;
#166 = EDGE_CURVE ( 'NONE', #283, #277, #249, .T. ) ;
#167 = EDGE_CURVE ( 'NONE', #291, #286, #248, .T. ) ;
#168 = EDGE_CURVE ( 'NONE', #280, #366, #246, .T. ) ;
#169 = EDGE_CURVE ( 'NONE', #291, #281, #254, .T. ) ;
#170 = EDGE_CURVE ( 'NONE', #290, #281, #244, .T. ) ;
#171 = EDGE_CURVE ( 'NONE', #292, #283, #240, .T. ) ;
#172 = EDGE_CURVE ( 'NONE', #201, #201, #242, .T. ) ;
#173 = CC_DESIGN_DATE_AND_TIME_ASSIGNMENT ( #384, #407, ( #139 ) ) ;
#174 = CC_DESIGN_PERSON_AND_ORGANIZATION_ASSIGNMENT ( #378, #437, ( #139 ) ) ;
#175 = EDGE_CURVE ( 'NONE', #292, #293, #235, .T. ) ;
#176 = EDGE_CURVE ( 'NONE', #288, #290, #236, .T. ) ;
#177 = EDGE_CURVE ( 'NONE', #286, #283, #232, .T. ) ;
#178 = EDGE_CURVE ( 'NONE', #289, #292, #231, .T. ) ;
#179 = EDGE_CURVE ( 'NONE', #200, #200, #229, .T. ) ;
#180 = EDGE_CURVE ( 'NONE', #288, #291, #226, .T. ) ;
#181 = EDGE_CURVE ( 'NONE', #290, #280, #227, .T. ) ;
#182 = LOCAL_TIME ( 12, 44, 29.00000000000000000, #183 ) ;
#183 = COORDINATED_UNIVERSAL_TIME_OFFSET ( 4, 0, .AHEAD. ) ;
#184 = APPROVAL_PERSON_ORGANIZATION ( #185, #141, #420 ) ;
#185 = PERSON_AND_ORGANIZATION ( #386, #199 ) ;
#186 = DATE_AND_TIME ( #187, #188 ) ;
#187 = CALENDAR_DATE ( 2012, 9, 11 ) ;
#188 = LOCAL_TIME ( 12, 44, 29.00000000000000000, #189 ) ;
#189 = COORDINATED_UNIVERSAL_TIME_OFFSET ( 4, 0, .AHEAD. ) ;
#190 = PERSON_AND_ORGANIZATION ( #386, #199 ) ;
#191 = APPROVAL_DATE_TIME ( #192, #121 ) ;
#192 = DATE_AND_TIME ( #193, #194 ) ;
#193 = CALENDAR_DATE ( 2012, 9, 11 ) ;
#194 = LOCAL_TIME ( 12, 44, 29.00000000000000000, #195 ) ;
#195 = COORDINATED_UNIVERSAL_TIME_OFFSET ( 4, 0, .AHEAD. ) ;
#196 = APPROVAL_PERSON_ORGANIZATION ( #197, #121, #432 ) ;
#197 = PERSON_AND_ORGANIZATION ( #386, #199 ) ;
#198 = PERSON_AND_ORGANIZATION ( #386, #199 ) ;
#199 = ORGANIZATION ( 'UNSPECIFIED', 'UNSPECIFIED', '' ) ;
#200 = VERTEX_POINT ( 'NONE', #425 ) ;
#201 = VERTEX_POINT ( 'NONE', #416 ) ;
#202 = VERTEX_POINT ( 'NONE', #421 ) ;
#203 = SHAPE_DEFINITION_REPRESENTATION ( #402, #389 ) ;
#204 = FACE_BOUND ( 'NONE', #367, .T. ) ;
#205 = FACE_OUTER_BOUND ( 'NONE', #365, .T. ) ;
#206 = VERTEX_POINT ( 'NONE', #418 ) ;
#207 = FACE_BOUND ( 'NONE', #375, .T. ) ;
#208 = FACE_OUTER_BOUND ( 'NONE', #284, .T. ) ;
#209 = FACE_OUTER_BOUND ( 'NONE', #368, .T. ) ;
#210 = FACE_BOUND ( 'NONE', #363, .T. ) ;
#211 = CYLINDRICAL_SURFACE ( 'NONE', #134, 2.500000000000002200 ) ;
#212 = FACE_BOUND ( 'NONE', #360, .T. ) ;
#213 = FACE_OUTER_BOUND ( 'NONE', #380, .T. ) ;
#214 = FACE_OUTER_BOUND ( 'NONE', #362, .T. ) ;
#215 = FACE_OUTER_BOUND ( 'NONE', #371, .T. ) ;
#216 = CYLINDRICAL_SURFACE ( 'NONE', #146, 2.500000000000002200 ) ;
#217 = FACE_OUTER_BOUND ( 'NONE', #361, .T. ) ;
#218 = FACE_OUTER_BOUND ( 'NONE', #370, .T. ) ;
#219 = FACE_OUTER_BOUND ( 'NONE', #372, .T. ) ;
#220 = FACE_OUTER_BOUND ( 'NONE', #251, .T. ) ;
#221 = FACE_OUTER_BOUND ( 'NONE', #364, .T. ) ;
#222 = FACE_OUTER_BOUND ( 'NONE', #359, .T. ) ;
#223 = FACE_OUTER_BOUND ( 'NONE', #326, .T. ) ;
#224 = VECTOR ( 'NONE', #71, 1000.000000000000000 ) ;
#225 = VECTOR ( 'NONE', #66, 1000.000000000000000 ) ;
#226 = LINE ( 'NONE', #86, #224 ) ;
#227 = LINE ( 'NONE', #96, #225 ) ;
#228 = VECTOR ( 'NONE', #79, 1000.000000000000000 ) ;
#229 = CIRCLE ( 'NONE', #147, 2.500000000000002200 ) ;
#230 = VECTOR ( 'NONE', #81, 1000.000000000000000 ) ;
#231 = LINE ( 'NONE', #80, #228 ) ;
#232 = LINE ( 'NONE', #83, #230 ) ;
#233 = VECTOR ( 'NONE', #87, 1000.000000000000000 ) ;
#234 = VECTOR ( 'NONE', #84, 1000.000000000000000 ) ;
#235 = LINE ( 'NONE', #103, #233 ) ;
#236 = LINE ( 'NONE', #98, #234 ) ;
#237 = VECTOR ( 'NONE', #97, 1000.000000000000000 ) ;
#238 = FACE_OUTER_BOUND ( 'NONE', #376, .T. ) ;
#239 = VECTOR ( 'NONE', #102, 1000.000000000000000 ) ;
#240 = LINE ( 'NONE', #100, #237 ) ;
#241 = VECTOR ( 'NONE', #109, 1000.000000000000000 ) ;
#242 = CIRCLE ( 'NONE', #148, 2.500000000000002200 ) ;
#243 = VECTOR ( 'NONE', #110, 1000.000000000000000 ) ;
#244 = LINE ( 'NONE', #24, #239 ) ;
#245 = VECTOR ( 'NONE', #112, 1000.000000000000000 ) ;
#246 = LINE ( 'NONE', #111, #243 ) ;
#247 = VECTOR ( 'NONE', #116, 1000.000000000000000 ) ;
#248 = LINE ( 'NONE', #115, #245 ) ;
#249 = LINE ( 'NONE', #117, #247 ) ;
#250 = VECTOR ( 'NONE', #9, 1000.000000000000000 ) ;
#251 = EDGE_LOOP ( 'NONE', ( #310 ) ) ;
#252 = VECTOR ( 'NONE', #56, 1000.000000000000000 ) ;
#253 = CIRCLE ( 'NONE', #149, 2.500000000000002200 ) ;
#254 = LINE ( 'NONE', #42, #241 ) ;
#255 = LINE ( 'NONE', #75, #250 ) ;
#256 = VECTOR ( 'NONE', #67, 1000.000000000000000 ) ;
#257 = CIRCLE ( 'NONE', #150, 2.500000000000002200 ) ;
#258 = VECTOR ( 'NONE', #68, 1000.000000000000000 ) ;
#259 = LINE ( 'NONE', #6, #252 ) ;
#260 = VECTOR ( 'NONE', #78, 1000.000000000000000 ) ;
#261 = LINE ( 'NONE', #77, #258 ) ;
#262 = VECTOR ( 'NONE', #85, 1000.000000000000000 ) ;
#263 = LINE ( 'NONE', #82, #260 ) ;
#264 = VECTOR ( 'NONE', #90, 1000.000000000000000 ) ;
#265 = LINE ( 'NONE', #93, #256 ) ;
#266 = VECTOR ( 'NONE', #91, 1000.000000000000000 ) ;
#267 = LINE ( 'NONE', #99, #262 ) ;
#268 = VECTOR ( 'NONE', #92, 1000.000000000000000 ) ;
#269 = LINE ( 'NONE', #95, #266 ) ;
#270 = VECTOR ( 'NONE', #101, 1000.000000000000000 ) ;
#271 = LINE ( 'NONE', #108, #264 ) ;
#272 = VECTOR ( 'NONE', #107, 1000.000000000000000 ) ;
#273 = LINE ( 'NONE', #104, #268 ) ;
#274 = VECTOR ( 'NONE', #114, 1000.000000000000000 ) ;
#275 = LINE ( 'NONE', #113, #274 ) ;
#276 = LINE ( 'NONE', #105, #270 ) ;
#277 = VERTEX_POINT ( 'NONE', #76 ) ;
#278 = PERSON_AND_ORGANIZATION ( #386, #199 ) ;
#279 = VERTEX_POINT ( 'NONE', #69 ) ;
#280 = VERTEX_POINT ( 'NONE', #64 ) ;
#281 = VERTEX_POINT ( 'NONE', #63 ) ;
#282 = VERTEX_POINT ( 'NONE', #62 ) ;
#283 = VERTEX_POINT ( 'NONE', #65 ) ;
#284 = EDGE_LOOP ( 'NONE', ( #343, #344, #345, #346 ) ) ;
#285 = VERTEX_POINT ( 'NONE', #61 ) ;
#286 = VERTEX_POINT ( 'NONE', #70 ) ;
#287 = VERTEX_POINT ( 'NONE', #60 ) ;
#288 = VERTEX_POINT ( 'NONE', #59 ) ;
#289 = VERTEX_POINT ( 'NONE', #58 ) ;
#290 = VERTEX_POINT ( 'NONE', #57 ) ;
#291 = VERTEX_POINT ( 'NONE', #55 ) ;
#292 = VERTEX_POINT ( 'NONE', #54 ) ;
#293 = VERTEX_POINT ( 'NONE', #53 ) ;
#294 = ORIENTED_EDGE ( 'NONE', *, *, #169, .F. ) ;
#295 = ORIENTED_EDGE ( 'NONE', *, *, #167, .T. ) ;
#296 = ORIENTED_EDGE ( 'NONE', *, *, #177, .T. ) ;
#297 = ORIENTED_EDGE ( 'NONE', *, *, #166, .T. ) ;
#298 = ORIENTED_EDGE ( 'NONE', *, *, #180, .T. ) ;
#299 = ORIENTED_EDGE ( 'NONE', *, *, #172, .F. ) ;
#300 = ORIENTED_EDGE ( 'NONE', *, *, #179, .F. ) ;
#301 = ORIENTED_EDGE ( 'NONE', *, *, #152, .T. ) ;
#302 = ORIENTED_EDGE ( 'NONE', *, *, #154, .F. ) ;
#303 = ORIENTED_EDGE ( 'NONE', *, *, #181, .F. ) ;
#304 = ORIENTED_EDGE ( 'NONE', *, *, #170, .T. ) ;
#305 = ORIENTED_EDGE ( 'NONE', *, *, #168, .T. ) ;
#306 = ORIENTED_EDGE ( 'NONE', *, *, #159, .T. ) ;
#307 = ORIENTED_EDGE ( 'NONE', *, *, #156, .T. ) ;
#308 = CALENDAR_DATE ( 2012, 9, 11 ) ;
#309 = ORIENTED_EDGE ( 'NONE', *, *, #163, .T. ) ;
#310 = ORIENTED_EDGE ( 'NONE', *, *, #179, .T. ) ;
#311 = APPROVAL_DATE_TIME ( #379, #138 ) ;
#312 = COORDINATED_UNIVERSAL_TIME_OFFSET ( 4, 0, .AHEAD. ) ;
#313 = ORIENTED_EDGE ( 'NONE', *, *, #162, .T. ) ;
#314 = ORIENTED_EDGE ( 'NONE', *, *, #158, .F. ) ;
#315 = ORIENTED_EDGE ( 'NONE', *, *, #161, .F. ) ;
#316 = APPROVAL_PERSON_ORGANIZATION ( #382, #138, #413 ) ;
#317 = ORIENTED_EDGE ( 'NONE', *, *, #175, .F. ) ;
#318 = ORIENTED_EDGE ( 'NONE', *, *, #178, .F. ) ;
#319 = ORIENTED_EDGE ( 'NONE', *, *, #164, .F. ) ;
#320 = ORIENTED_EDGE ( 'NONE', *, *, #172, .T. ) ;
#321 = DATE_AND_TIME ( #327, #182 ) ;
#322 = CLOSED_SHELL ( 'NONE', ( #397, #396, #400, #401, #398, #391, #394, #399, #392, #393, #390, #395 ) ) ;
#323 = ORIENTED_EDGE ( 'NONE', *, *, #176, .T. ) ;
#324 = ORIENTED_EDGE ( 'NONE', *, *, #170, .F. ) ;
#325 = ORIENTED_EDGE ( 'NONE', *, *, #181, .T. ) ;
#326 = EDGE_LOOP ( 'NONE', ( #357, #358, #338, #331 ) ) ;
#327 = CALENDAR_DATE ( 2012, 9, 11 ) ;
#328 = ORIENTED_EDGE ( 'NONE', *, *, #169, .T. ) ;
#329 = ORIENTED_EDGE ( 'NONE', *, *, #152, .F. ) ;
#330 = APPROVAL_DATE_TIME ( #321, #141 ) ;
#331 = ORIENTED_EDGE ( 'NONE', *, *, #165, .T. ) ;
#332 = ORIENTED_EDGE ( 'NONE', *, *, #176, .F. ) ;
#333 = ORIENTED_EDGE ( 'NONE', *, *, #151, .F. ) ;
#334 = ORIENTED_EDGE ( 'NONE', *, *, #151, .T. ) ;
#335 = ORIENTED_EDGE ( 'NONE', *, *, #168, .F. ) ;
#336 = ORIENTED_EDGE ( 'NONE', *, *, #153, .F. ) ;
#337 = ORIENTED_EDGE ( 'NONE', *, *, #154, .T. ) ;
#338 = ORIENTED_EDGE ( 'NONE', *, *, #164, .T. ) ;
#339 = ORIENTED_EDGE ( 'NONE', *, *, #156, .F. ) ;
#340 = ORIENTED_EDGE ( 'NONE', *, *, #157, .F. ) ;
#341 = ORIENTED_EDGE ( 'NONE', *, *, #158, .T. ) ;
#342 = ORIENTED_EDGE ( 'NONE', *, *, #153, .T. ) ;
#343 = ORIENTED_EDGE ( 'NONE', *, *, #159, .F. ) ;
#344 = ORIENTED_EDGE ( 'NONE', *, *, #160, .F. ) ;
#345 = ORIENTED_EDGE ( 'NONE', *, *, #161, .T. ) ;
#346 = ORIENTED_EDGE ( 'NONE', *, *, #157, .T. ) ;
#347 = ORIENTED_EDGE ( 'NONE', *, *, #162, .F. ) ;
#348 = ORIENTED_EDGE ( 'NONE', *, *, #163, .F. ) ;
#349 = ORIENTED_EDGE ( 'NONE', *, *, #166, .F. ) ;
#350 = ORIENTED_EDGE ( 'NONE', *, *, #171, .F. ) ;
#351 = ORIENTED_EDGE ( 'NONE', *, *, #175, .T. ) ;
#352 = ORIENTED_EDGE ( 'NONE', *, *, #160, .T. ) ;
#353 = ORIENTED_EDGE ( 'NONE', *, *, #177, .F. ) ;
#354 = ORIENTED_EDGE ( 'NONE', *, *, #165, .F. ) ;
#355 = ORIENTED_EDGE ( 'NONE', *, *, #178, .T. ) ;
#356 = ORIENTED_EDGE ( 'NONE', *, *, #171, .T. ) ;
#357 = ORIENTED_EDGE ( 'NONE', *, *, #167, .F. ) ;
#358 = ORIENTED_EDGE ( 'NONE', *, *, #180, .F. ) ;
#359 = EDGE_LOOP ( 'NONE', ( #334, #336, #335, #337 ) ) ;
#360 = EDGE_LOOP ( 'NONE', ( #347 ) ) ;
#361 = EDGE_LOOP ( 'NONE', ( #328, #324, #332, #298 ) ) ;
#362 = EDGE_LOOP ( 'NONE', ( #353, #354, #355, #356 ) ) ;
#363 = EDGE_LOOP ( 'NONE', ( #299 ) ) ;
#364 = EDGE_LOOP ( 'NONE', ( #305, #314, #315, #317, #318, #319, #323, #325 ) ) ;
#365 = EDGE_LOOP ( 'NONE', ( #349, #350, #351, #352 ) ) ;
#366 = VERTEX_POINT ( 'NONE', #51 ) ;
#367 = EDGE_LOOP ( 'NONE', ( #348 ) ) ;
#368 = EDGE_LOOP ( 'NONE', ( #301, #302, #303, #304 ) ) ;
#369 = LINE ( 'NONE', #106, #272 ) ;
#370 = EDGE_LOOP ( 'NONE', ( #313 ) ) ;
#371 = EDGE_LOOP ( 'NONE', ( #339, #340, #341, #342 ) ) ;
#372 = EDGE_LOOP ( 'NONE', ( #309 ) ) ;
#373 = COORDINATED_UNIVERSAL_TIME_OFFSET ( 4, 0, .AHEAD. ) ;
#374 = LOCAL_TIME ( 12, 44, 29.00000000000000000, #312 ) ;
#375 = EDGE_LOOP ( 'NONE', ( #300 ) ) ;
#376 = EDGE_LOOP ( 'NONE', ( #333, #329, #294, #295, #296, #297, #306, #307 ) ) ;
#377 = PERSON_AND_ORGANIZATION ( #386, #199 ) ;
#378 = PERSON_AND_ORGANIZATION ( #386, #199 ) ;
#379 = DATE_AND_TIME ( #308, #374 ) ;
#380 = EDGE_LOOP ( 'NONE', ( #320 ) ) ;
#381 = CALENDAR_DATE ( 2012, 9, 11 ) ;
#382 = PERSON_AND_ORGANIZATION ( #386, #199 ) ;
#383 = LOCAL_TIME ( 12, 44, 29.00000000000000000, #373 ) ;
#384 = DATE_AND_TIME ( #381, #383 ) ;
#385 = PRODUCT ( 'Êðûøêà íà îòâåòâèòåëü Ò-îáðàçíûé âåðòèêàëüíûé TDSR_38404', 'Êðûøêà íà îòâåòâèòåëü Ò-îáðàçíûé âåðòèêàëüíûé TDSR_38404', '', ( #406 ) ) ;
#386 = PERSON ( 'UNSPECIFIED', 'UNSPECIFIED', 'UNSPECIFIED', ('UNSPECIFIED'), ('UNSPECIFIED'), ('UNSPECIFIED') ) ;
#387 = MANIFOLD_SOLID_BREP ( 'Âûðåç-Âûòÿíóòü1', #322 ) ;
#388 = UNCERTAINTY_MEASURE_WITH_UNIT (LENGTH_MEASURE( 1.000000000000000100E-005 ), #412, 'distance_accuracy_value', 'NONE');
#389 = ADVANCED_BREP_SHAPE_REPRESENTATION ( '¦¨v°úð ýð þªòõªòøªõû¹ T-þñ¨ð÷ývù òõ¨ªøúðû¹ývù TDSR_38404', ( #387, #124 ), #128 ) ;
#390 = ADVANCED_FACE ( 'NONE', ( #219, #220 ), #216, .F. ) ;
#391 = ADVANCED_FACE ( 'NONE', ( #223 ), #47, .T. ) ;
#392 = ADVANCED_FACE ( 'NONE', ( #221 ), #41, .F. ) ;
#393 = ADVANCED_FACE ( 'NONE', ( #238 ), #35, .T. ) ;
#394 = ADVANCED_FACE ( 'NONE', ( #217 ), #30, .F. ) ;
#395 = ADVANCED_FACE ( 'NONE', ( #218, #213 ), #211, .F. ) ;
#396 = ADVANCED_FACE ( 'NONE', ( #215 ), #23, .T. ) ;
#397 = ADVANCED_FACE ( 'NONE', ( #222 ), #17, .F. ) ;
#398 = ADVANCED_FACE ( 'NONE', ( #214 ), #12, .T. ) ;
#399 = ADVANCED_FACE ( 'NONE', ( #210, #207, #209 ), #5, .F. ) ;
#400 = ADVANCED_FACE ( 'NONE', ( #208 ), #2, .T. ) ;
#401 = ADVANCED_FACE ( 'NONE', ( #212, #204, #205 ), #429, .T. ) ;
#402 = PRODUCT_DEFINITION_SHAPE ( 'NONE', 'NONE',  #122 ) ;
#403 = DESIGN_CONTEXT ( 'detailed design', #423, 'design' ) ;
#404 = APPROVAL_STATUS ( 'not_yet_approved' ) ;
#405 = DATE_TIME_ROLE ( 'creation_date' ) ;
#406 = MECHANICAL_CONTEXT ( 'NONE', #409, 'mechanical' ) ;
#407 = DATE_TIME_ROLE ( 'classification_date' ) ;
#408 = DIRECTION ( 'NONE',  ( 1.000000000000000000, 0.0000000000000000000, 0.0000000000000000000 ) ) ;
#409 = APPLICATION_CONTEXT ( 'configuration controlled 3d designs of mechanical parts and assemblies' ) ;
#410 =( NAMED_UNIT ( * ) PLANE_ANGLE_UNIT ( ) SI_UNIT ( $, .RADIAN. ) );
#411 = APPLICATION_PROTOCOL_DEFINITION ( 'international standard', 'config_control_design', 1994, #409 ) ;
#412 =( LENGTH_UNIT ( ) NAMED_UNIT ( * ) SI_UNIT ( .MILLI., .METRE. ) );
#413 = APPROVAL_ROLE ( '' ) ;
#414 = DIRECTION ( 'NONE',  ( 0.0000000000000000000, 0.0000000000000000000, 1.000000000000000000 ) ) ;
#415 = CARTESIAN_POINT ( 'NONE',  ( 0.0000000000000000000, 0.0000000000000000000, 0.0000000000000000000 ) ) ;
#416 = CARTESIAN_POINT ( 'NONE',  ( 0.0000000000000000000, 0.0000000000000000000, 397.5000000000000000 ) ) ;
#417 = PERSON_AND_ORGANIZATION_ROLE ( 'design_supplier' ) ;
#418 = CARTESIAN_POINT ( 'NONE',  ( 0.0000000000000000000, 0.5999999999999999800, 392.5000000000000000 ) ) ;
#419 = PERSON_AND_ORGANIZATION_ROLE ( 'design_owner' ) ;
#420 = APPROVAL_ROLE ( '' ) ;
#421 = CARTESIAN_POINT ( 'NONE',  ( 1.734723475976807100E-015, 0.5999999999999999800, 17.49999999999999600 ) ) ;
#422 = DIRECTION ( 'NONE',  ( 0.0000000000000000000, -0.0000000000000000000, 1.000000000000000000 ) ) ;
#423 = APPLICATION_CONTEXT ( 'configuration controlled 3d designs of mechanical parts and assemblies' ) ;
#424 = DIRECTION ( 'NONE',  ( 0.0000000000000000000, 1.000000000000000000, 0.0000000000000000000 ) ) ;
#425 = CARTESIAN_POINT ( 'NONE',  ( 1.734723475976807100E-015, 0.0000000000000000000, 17.49999999999999600 ) ) ;
#426 = DIRECTION ( 'NONE',  ( -0.0000000000000000000, 0.0000000000000000000, -1.000000000000000000 ) ) ;
#427 = CARTESIAN_POINT ( 'NONE',  ( -151.0000000000000000, 0.5999999999999999800, 410.0000000000000000 ) ) ;
#428 = PERSON_AND_ORGANIZATION_ROLE ( 'creator' ) ;
#429 = PLANE ( 'NONE',  #127 ) ;
#430 =( NAMED_UNIT ( * ) SI_UNIT ( $, .STERADIAN. ) SOLID_ANGLE_UNIT ( ) );
#431 = PERSON_AND_ORGANIZATION_ROLE ( 'creator' ) ;
#432 = APPROVAL_ROLE ( '' ) ;
#433 = APPROVAL_STATUS ( 'not_yet_approved' ) ;
#434 = APPROVAL_STATUS ( 'not_yet_approved' ) ;
#435 = APPLICATION_PROTOCOL_DEFINITION ( 'international standard', 'config_control_design', 1994, #423 ) ;
#436 = SECURITY_CLASSIFICATION_LEVEL ( 'unclassified' ) ;
#437 = PERSON_AND_ORGANIZATION_ROLE ( 'classification_officer' ) ;
ENDSEC;
END-ISO-10303-21;
