ISO-10303-21;
HEADER;
FILE_DESCRIPTION (( 'STEP AP203' ),
    '1' );
FILE_NAME ('CLP1M-SHU-8 Øàéáà ïëîñêàÿ óñèëåííàÿ M8.STEP',
    '2016-02-12T08:26:50',
    ( '' ),
    ( '' ),
    'SwSTEP 2.0',
    'SolidWorks 2014',
    '' );
FILE_SCHEMA (( 'CONFIG_CONTROL_DESIGN' ));
ENDSEC;

DATA;
#1 = PERSON_AND_ORGANIZATION_ROLE ( 'creator' ) ;
#2 = EDGE_LOOP ( 'NONE', ( #146 ) ) ;
#3 = PERSON ( 'UNSPECIFIED', 'UNSPECIFIED', 'UNSPECIFIED', ('UNSPECIFIED'), ('UNSPECIFIED'), ('UNSPECIFIED') ) ;
#4 = APPROVAL_ROLE ( '' ) ;
#5 = APPROVAL_STATUS ( 'not_yet_approved' ) ;
#6 = CALENDAR_DATE ( 2016, 12, 2 ) ;
#7 = ADVANCED_FACE ( 'NONE', ( #161, #85 ), #66, .T. ) ;
#8 = CC_DESIGN_SECURITY_CLASSIFICATION ( #61, ( #77 ) ) ;
#9 = EDGE_LOOP ( 'NONE', ( #102 ) ) ;
#10 = ADVANCED_FACE ( 'NONE', ( #38, #157 ), #152, .F. ) ;
#11 = DIRECTION ( 'NONE',  ( -0.0000000000000000000, -0.0000000000000000000, -1.000000000000000000 ) ) ;
#12 = APPROVAL_PERSON_ORGANIZATION ( #98, #32, #51 ) ;
#13 = DATE_TIME_ROLE ( 'creation_date' ) ;
#14 = PERSON_AND_ORGANIZATION_ROLE ( 'creator' ) ;
#15 = SECURITY_CLASSIFICATION_LEVEL ( 'unclassified' ) ;
#16 = APPROVAL_ROLE ( '' ) ;
#17 = CALENDAR_DATE ( 2016, 12, 2 ) ;
#18 = EDGE_CURVE ( 'NONE', #63, #63, #154, .T. ) ;
#19 = APPROVAL_STATUS ( 'not_yet_approved' ) ;
#20 = EDGE_CURVE ( 'NONE', #148, #148, #65, .T. ) ;
#21 = PERSON_AND_ORGANIZATION ( #3, #131 ) ;
#22 = CC_DESIGN_APPROVAL ( #32, ( #61 ) ) ;
#23 = MANIFOLD_SOLID_BREP ( 'Âûòÿíóòü1', #124 ) ;
#24 = APPROVAL_DATE_TIME ( #97, #74 ) ;
#25 = APPLICATION_PROTOCOL_DEFINITION ( 'international standard', 'config_control_design', 1994, #28 ) ;
#26 = LOCAL_TIME ( 11, 26, 50.00000000000000000, #107 ) ;
#27 = ADVANCED_FACE ( 'NONE', ( #158, #159 ), #134, .F. ) ;
#28 = APPLICATION_CONTEXT ( 'configuration controlled 3d designs of mechanical parts and assemblies' ) ;
#29 = PERSON_AND_ORGANIZATION_ROLE ( 'design_owner' ) ;
#30 = PERSON_AND_ORGANIZATION_ROLE ( 'design_supplier' ) ;
#31 = PERSON_AND_ORGANIZATION ( #3, #131 ) ;
#32 = APPROVAL ( #50, 'UNSPECIFIED' ) ;
#33 = EDGE_LOOP ( 'NONE', ( #118 ) ) ;
#34 = MECHANICAL_CONTEXT ( 'NONE', #37, 'mechanical' ) ;
#35 = ADVANCED_FACE ( 'NONE', ( #60, #64 ), #150, .T. ) ;
#36 = DIRECTION ( 'NONE',  ( 1.000000000000000000, 0.0000000000000000000, 0.0000000000000000000 ) ) ;
#37 = APPLICATION_CONTEXT ( 'configuration controlled 3d designs of mechanical parts and assemblies' ) ;
#38 = FACE_OUTER_BOUND ( 'NONE', #2, .T. ) ;
#39 = COORDINATED_UNIVERSAL_TIME_OFFSET ( 3, 0, .AHEAD. ) ;
#40 = CARTESIAN_POINT ( 'NONE',  ( 0.0000000000000000000, 0.0000000000000000000, 2.000000000000000000 ) ) ;
#41 = CC_DESIGN_DATE_AND_TIME_ASSIGNMENT ( #47, #75, ( #61 ) ) ;
#42 = LOCAL_TIME ( 11, 26, 50.00000000000000000, #39 ) ;
#43 = APPROVAL_DATE_TIME ( #119, #101 ) ;
#44 = DIRECTION ( 'NONE',  ( -1.000000000000000000, 0.0000000000000000000, 0.0000000000000000000 ) ) ;
#45 = APPLICATION_PROTOCOL_DEFINITION ( 'international standard', 'config_control_design', 1994, #37 ) ;
#46 = DIRECTION ( 'NONE',  ( -1.000000000000000000, 0.0000000000000000000, 0.0000000000000000000 ) ) ;
#47 = DATE_AND_TIME ( #17, #164 ) ;
#48 = LOCAL_TIME ( 11, 26, 50.00000000000000000, #121 ) ;
#49 = EDGE_LOOP ( 'NONE', ( #135 ) ) ;
#50 = APPROVAL_STATUS ( 'not_yet_approved' ) ;
#51 = APPROVAL_ROLE ( '' ) ;
#52 = DIRECTION ( 'NONE',  ( 0.0000000000000000000, 0.0000000000000000000, 1.000000000000000000 ) ) ;
#53 = PERSON_AND_ORGANIZATION ( #3, #131 ) ;
#54 = SHAPE_DEFINITION_REPRESENTATION ( #123, #117 ) ;
#55 = CC_DESIGN_PERSON_AND_ORGANIZATION_ASSIGNMENT ( #21, #99, ( #61 ) ) ;
#56 =( NAMED_UNIT ( * ) SI_UNIT ( $, .STERADIAN. ) SOLID_ANGLE_UNIT ( ) );
#57 =( NAMED_UNIT ( * ) PLANE_ANGLE_UNIT ( ) SI_UNIT ( $, .RADIAN. ) );
#58 = DIRECTION ( 'NONE',  ( -0.0000000000000000000, -0.0000000000000000000, -1.000000000000000000 ) ) ;
#59 =( LENGTH_UNIT ( ) NAMED_UNIT ( * ) SI_UNIT ( .MILLI., .METRE. ) );
#60 = FACE_OUTER_BOUND ( 'NONE', #162, .T. ) ;
#61 = SECURITY_CLASSIFICATION ( '', '', #15 ) ;
#62 = VERTEX_POINT ( 'NONE', #80 ) ;
#63 = VERTEX_POINT ( 'NONE', #100 ) ;
#64 = FACE_BOUND ( 'NONE', #9, .T. ) ;
#65 = CIRCLE ( 'NONE', #167, 12.00000000000000200 ) ;
#66 = CYLINDRICAL_SURFACE ( 'NONE', #156, 12.00000000000000200 ) ;
#67 = CC_DESIGN_PERSON_AND_ORGANIZATION_ASSIGNMENT ( #95, #30, ( #77 ) ) ;
#68 = ORIENTED_EDGE ( 'NONE', *, *, #141, .F. ) ;
#69 = CARTESIAN_POINT ( 'NONE',  ( 4.200000000000000200, 0.0000000000000000000, 0.0000000000000000000 ) ) ;
#70 = ORIENTED_EDGE ( 'NONE', *, *, #18, .T. ) ;
#71 = CC_DESIGN_PERSON_AND_ORGANIZATION_ASSIGNMENT ( #96, #1, ( #77 ) ) ;
#72 = CC_DESIGN_APPROVAL ( #74, ( #77 ) ) ;
#73 = DIRECTION ( 'NONE',  ( 1.000000000000000000, 0.0000000000000000000, 0.0000000000000000000 ) ) ;
#74 = APPROVAL ( #5, 'UNSPECIFIED' ) ;
#75 = DATE_TIME_ROLE ( 'classification_date' ) ;
#76 = PERSON_AND_ORGANIZATION ( #3, #131 ) ;
#77 = PRODUCT_DEFINITION_FORMATION_WITH_SPECIFIED_SOURCE ( 'ANY', '', #115, .NOT_KNOWN. ) ;
#78 = DIRECTION ( 'NONE',  ( 0.0000000000000000000, 0.0000000000000000000, 1.000000000000000000 ) ) ;
#79 = CARTESIAN_POINT ( 'NONE',  ( 0.0000000000000000000, 0.0000000000000000000, 0.0000000000000000000 ) ) ;
#80 = CARTESIAN_POINT ( 'NONE',  ( 4.200000000000000200, 0.0000000000000000000, 2.000000000000000000 ) ) ;
#81 = APPROVAL_DATE_TIME ( #82, #32 ) ;
#82 = DATE_AND_TIME ( #6, #84 ) ;
#83 = CC_DESIGN_DATE_AND_TIME_ASSIGNMENT ( #109, #13, ( #103 ) ) ;
#84 = LOCAL_TIME ( 11, 26, 50.00000000000000000, #86 ) ;
#85 = FACE_OUTER_BOUND ( 'NONE', #49, .T. ) ;
#86 = COORDINATED_UNIVERSAL_TIME_OFFSET ( 3, 0, .AHEAD. ) ;
#87 = CARTESIAN_POINT ( 'NONE',  ( 0.0000000000000000000, 0.0000000000000000000, 0.0000000000000000000 ) ) ;
#88 = CC_DESIGN_PERSON_AND_ORGANIZATION_ASSIGNMENT ( #76, #14, ( #103 ) ) ;
#89 = DIRECTION ( 'NONE',  ( 1.000000000000000000, 0.0000000000000000000, 0.0000000000000000000 ) ) ;
#90 = UNCERTAINTY_MEASURE_WITH_UNIT (LENGTH_MEASURE( 1.000000000000000100E-005 ), #59, 'distance_accuracy_value', 'NONE');
#91 = DIRECTION ( 'NONE',  ( 0.0000000000000000000, 0.0000000000000000000, 1.000000000000000000 ) ) ;
#92 = CC_DESIGN_APPROVAL ( #101, ( #103 ) ) ;
#93 = CARTESIAN_POINT ( 'NONE',  ( 0.0000000000000000000, 0.0000000000000000000, 2.000000000000000000 ) ) ;
#94 = COORDINATED_UNIVERSAL_TIME_OFFSET ( 3, 0, .AHEAD. ) ;
#95 = PERSON_AND_ORGANIZATION ( #3, #131 ) ;
#96 = PERSON_AND_ORGANIZATION ( #3, #131 ) ;
#97 = DATE_AND_TIME ( #105, #26 ) ;
#98 = PERSON_AND_ORGANIZATION ( #3, #131 ) ;
#99 = PERSON_AND_ORGANIZATION_ROLE ( 'classification_officer' ) ;
#100 = CARTESIAN_POINT ( 'NONE',  ( 12.00000000000000200, 0.0000000000000000000, 2.000000000000000000 ) ) ;
#101 = APPROVAL ( #19, 'UNSPECIFIED' ) ;
#102 = ORIENTED_EDGE ( 'NONE', *, *, #112, .F. ) ;
#103 = PRODUCT_DEFINITION ( 'UNKNOWN', '', #77, #163 ) ;
#104 = CC_DESIGN_PERSON_AND_ORGANIZATION_ASSIGNMENT ( #128, #29, ( #115 ) ) ;
#105 = CALENDAR_DATE ( 2016, 12, 2 ) ;
#106 = AXIS2_PLACEMENT_3D ( 'NONE', #87, #52, #36 ) ;
#107 = COORDINATED_UNIVERSAL_TIME_OFFSET ( 3, 0, .AHEAD. ) ;
#108 = APPROVAL_PERSON_ORGANIZATION ( #31, #74, #4 ) ;
#109 = DATE_AND_TIME ( #110, #42 ) ;
#110 = CALENDAR_DATE ( 2016, 12, 2 ) ;
#111 = DIRECTION ( 'NONE',  ( 1.000000000000000000, 0.0000000000000000000, -0.0000000000000000000 ) ) ;
#112 = EDGE_CURVE ( 'NONE', #62, #62, #151, .T. ) ;
#113 = DIRECTION ( 'NONE',  ( 0.0000000000000000000, 0.0000000000000000000, 1.000000000000000000 ) ) ;
#114 = CARTESIAN_POINT ( 'NONE',  ( 12.00000000000000200, 0.0000000000000000000, 0.0000000000000000000 ) ) ;
#115 = PRODUCT ( 'CLP1M-SHU-8 Øàéáà ïëîñêàÿ óñèëåííàÿ M8', 'CLP1M-SHU-8 Øàéáà ïëîñêàÿ óñèëåííàÿ M8', '', ( #34 ) ) ;
#116 = ORIENTED_EDGE ( 'NONE', *, *, #20, .F. ) ;
#117 = ADVANCED_BREP_SHAPE_REPRESENTATION ( 'CLP1M-SHU-8 +ðùñð ÿûþ¸úð  º¸øûõýýð  M8', ( #23, #106 ), #132 ) ;
#118 = ORIENTED_EDGE ( 'NONE', *, *, #141, .T. ) ;
#119 = DATE_AND_TIME ( #120, #48 ) ;
#120 = CALENDAR_DATE ( 2016, 12, 2 ) ;
#121 = COORDINATED_UNIVERSAL_TIME_OFFSET ( 3, 0, .AHEAD. ) ;
#122 = DIRECTION ( 'NONE',  ( 1.000000000000000000, 0.0000000000000000000, -0.0000000000000000000 ) ) ;
#123 = PRODUCT_DEFINITION_SHAPE ( 'NONE', 'NONE',  #103 ) ;
#124 = CLOSED_SHELL ( 'NONE', ( #35, #27, #7, #10 ) ) ;
#125 = DIRECTION ( 'NONE',  ( 0.0000000000000000000, 0.0000000000000000000, 1.000000000000000000 ) ) ;
#126 = APPROVAL_PERSON_ORGANIZATION ( #53, #101, #16 ) ;
#127 = DIRECTION ( 'NONE',  ( 1.000000000000000000, 0.0000000000000000000, 0.0000000000000000000 ) ) ;
#128 = PERSON_AND_ORGANIZATION ( #3, #131 ) ;
#129 = DIRECTION ( 'NONE',  ( 0.0000000000000000000, 0.0000000000000000000, 1.000000000000000000 ) ) ;
#130 = CARTESIAN_POINT ( 'NONE',  ( 0.0000000000000000000, 0.0000000000000000000, 0.0000000000000000000 ) ) ;
#131 = ORGANIZATION ( 'UNSPECIFIED', 'UNSPECIFIED', '' ) ;
#132 =( GEOMETRIC_REPRESENTATION_CONTEXT ( 3 ) GLOBAL_UNCERTAINTY_ASSIGNED_CONTEXT ( ( #90 ) ) GLOBAL_UNIT_ASSIGNED_CONTEXT ( ( #59, #57, #56 ) ) REPRESENTATION_CONTEXT ( 'NONE', 'WORKASPACE' ) );
#133 = AXIS2_PLACEMENT_3D ( 'NONE', #79, #78, #73 ) ;
#134 = PLANE ( 'NONE',  #142 ) ;
#135 = ORIENTED_EDGE ( 'NONE', *, *, #20, .T. ) ;
#136 = CARTESIAN_POINT ( 'NONE',  ( 0.0000000000000000000, 0.0000000000000000000, 2.000000000000000000 ) ) ;
#137 = AXIS2_PLACEMENT_3D ( 'NONE', #168, #113, #111 ) ;
#138 = DIRECTION ( 'NONE',  ( 1.000000000000000000, 0.0000000000000000000, 0.0000000000000000000 ) ) ;
#139 = EDGE_LOOP ( 'NONE', ( #116 ) ) ;
#140 = AXIS2_PLACEMENT_3D ( 'NONE', #93, #91, #89 ) ;
#141 = EDGE_CURVE ( 'NONE', #144, #144, #147, .T. ) ;
#142 = AXIS2_PLACEMENT_3D ( 'NONE', #153, #125, #122 ) ;
#143 = EDGE_LOOP ( 'NONE', ( #68 ) ) ;
#144 = VERTEX_POINT ( 'NONE', #69 ) ;
#145 = DIRECTION ( 'NONE',  ( 0.0000000000000000000, 0.0000000000000000000, 1.000000000000000000 ) ) ;
#146 = ORIENTED_EDGE ( 'NONE', *, *, #112, .T. ) ;
#147 = CIRCLE ( 'NONE', #133, 4.200000000000000200 ) ;
#148 = VERTEX_POINT ( 'NONE', #114 ) ;
#149 = CARTESIAN_POINT ( 'NONE',  ( 0.0000000000000000000, 0.0000000000000000000, 2.000000000000000000 ) ) ;
#150 = PLANE ( 'NONE',  #137 ) ;
#151 = CIRCLE ( 'NONE', #140, 4.200000000000000200 ) ;
#152 = CYLINDRICAL_SURFACE ( 'NONE', #155, 4.200000000000000200 ) ;
#153 = CARTESIAN_POINT ( 'NONE',  ( 0.0000000000000000000, 0.0000000000000000000, 0.0000000000000000000 ) ) ;
#154 = CIRCLE ( 'NONE', #169, 12.00000000000000200 ) ;
#155 = AXIS2_PLACEMENT_3D ( 'NONE', #136, #58, #46 ) ;
#156 = AXIS2_PLACEMENT_3D ( 'NONE', #40, #11, #44 ) ;
#157 = FACE_OUTER_BOUND ( 'NONE', #143, .T. ) ;
#158 = FACE_OUTER_BOUND ( 'NONE', #139, .T. ) ;
#159 = FACE_BOUND ( 'NONE', #33, .T. ) ;
#160 = PRODUCT_RELATED_PRODUCT_CATEGORY ( 'detail', '', ( #115 ) ) ;
#161 = FACE_OUTER_BOUND ( 'NONE', #166, .T. ) ;
#162 = EDGE_LOOP ( 'NONE', ( #70 ) ) ;
#163 = DESIGN_CONTEXT ( 'detailed design', #28, 'design' ) ;
#164 = LOCAL_TIME ( 11, 26, 50.00000000000000000, #94 ) ;
#165 = ORIENTED_EDGE ( 'NONE', *, *, #18, .F. ) ;
#166 = EDGE_LOOP ( 'NONE', ( #165 ) ) ;
#167 = AXIS2_PLACEMENT_3D ( 'NONE', #130, #129, #127 ) ;
#168 = CARTESIAN_POINT ( 'NONE',  ( 0.0000000000000000000, 0.0000000000000000000, 2.000000000000000000 ) ) ;
#169 = AXIS2_PLACEMENT_3D ( 'NONE', #149, #145, #138 ) ;
ENDSEC;
END-ISO-10303-21;
