ISO-10303-21;
HEADER;
FILE_DESCRIPTION(('CoCreate Modeling STEP Export'),'2;1');
FILE_NAME('HMT.2-PT.stp','2010-05-06T 8:42:51',(''),(''),
'CoCreate Modeling STEP processor for AP214 (Solid Model)',
'CoCreate Modeling 16.00A  16-Aug-2008 (C) Parametric Technology GmbH',
'');
FILE_SCHEMA(('AUTOMOTIVE_DESIGN { 1 0 10303 214 1 1 1 1 }'));
ENDSEC;
DATA;
#10=CARTESIAN_POINT('',(-3.0870413738627,23.4399924713504,1.5));
#20=DIRECTION('',(0.,0.,1.));
#30=DIRECTION('',(1.,0.,0.));
#40=AXIS2_PLACEMENT_3D('',#10,#20,#30);
#50=PLANE('',#40);
#60=CARTESIAN_POINT('',(0.,29.9999999999982,1.5));
#70=DIRECTION('',(-1.,1.12429919590637E-14,0.));
#80=VECTOR('',#70,1.);
#90=LINE('',#60,#80);
#100=CARTESIAN_POINT('',(21.29979246179,29.9999999999983,1.5));
#110=VERTEX_POINT('',#100);
#120=CARTESIAN_POINT('',(8.45001181646449,29.9999999999981,1.5));
#130=VERTEX_POINT('',#120);
#140=EDGE_CURVE('',#110,#130,#90,.T.);
#150=ORIENTED_EDGE('',*,*,#140,.T.);
#160=CARTESIAN_POINT('',(21.29979246179,28.9999999999983,1.5));
#170=DIRECTION('',(0.,0.,1.));
#180=DIRECTION('',(6.12303176911189E-17,-1.,0.));
#190=AXIS2_PLACEMENT_3D('',#160,#170,#180);
#200=CIRCLE('',#190,1.00000000000002);
#210=CARTESIAN_POINT('',(22.239485082576,29.3420201433238,1.5));
#220=VERTEX_POINT('',#210);
#230=EDGE_CURVE('',#220,#110,#200,.T.);
#240=ORIENTED_EDGE('',*,*,#230,.T.);
#250=CARTESIAN_POINT('',(32.9191070279808,0.,1.5));
#260=DIRECTION('',(-0.342020143325545,0.939692620785954,0.));
#270=VECTOR('',#260,1.);
#280=LINE('',#250,#270);
#290=CARTESIAN_POINT('',(24.879385241572,22.0889540668692,1.5));
#300=VERTEX_POINT('',#290);
#310=EDGE_CURVE('',#300,#220,#280,.T.);
#320=ORIENTED_EDGE('',*,*,#310,.T.);
#330=CARTESIAN_POINT('',(23.,21.4049137802183,1.5));
#340=DIRECTION('',(0.,0.,1.));
#350=DIRECTION('',(6.12303176911189E-17,-1.,0.));
#360=AXIS2_PLACEMENT_3D('',#330,#340,#350);
#370=CIRCLE('',#360,2.);
#380=CARTESIAN_POINT('',(25.,21.4049137802183,1.5));
#390=VERTEX_POINT('',#380);
#400=EDGE_CURVE('',#390,#300,#370,.T.);
#410=ORIENTED_EDGE('',*,*,#400,.T.);
#420=CARTESIAN_POINT('',(25.,0.,1.5));
#430=DIRECTION('',(-6.12303176911189E-17,1.,0.));
#440=VECTOR('',#430,1.);
#450=LINE('',#420,#440);
#460=CARTESIAN_POINT('',(25.,7.5358983848626,1.5));
#470=VERTEX_POINT('',#460);
#480=EDGE_CURVE('',#470,#390,#450,.T.);
#490=ORIENTED_EDGE('',*,*,#480,.T.);
#500=CARTESIAN_POINT('',(23.,7.5358983848626,1.5));
#510=DIRECTION('',(0.,0.,-1.));
#520=DIRECTION('',(-1.,0.,0.));
#530=AXIS2_PLACEMENT_3D('',#500,#510,#520);
#540=CIRCLE('',#530,2.);
#550=CARTESIAN_POINT('',(24.7320508075689,6.53589838486265,1.5));
#560=VERTEX_POINT('',#550);
#570=EDGE_CURVE('',#470,#560,#540,.T.);
#580=ORIENTED_EDGE('',*,*,#570,.F.);
#590=CARTESIAN_POINT('',(20.9585481156726,0.,1.5));
#600=DIRECTION('',(0.499999999999977,0.866025403784452,0.));
#610=VECTOR('',#600,1.);
#620=LINE('',#590,#610);
#630=CARTESIAN_POINT('',(21.3915608175647,0.749999999999805,1.5));
#640=VERTEX_POINT('',#630);
#650=EDGE_CURVE('',#640,#560,#620,.T.);
#660=ORIENTED_EDGE('',*,*,#650,.T.);
#670=CARTESIAN_POINT('',(20.092522711888,1.49999999999977,1.5));
#680=DIRECTION('',(0.,0.,1.));
#690=DIRECTION('',(6.12303176911189E-17,-1.,0.));
#700=AXIS2_PLACEMENT_3D('',#670,#680,#690);
#710=CIRCLE('',#700,1.5);
#720=CARTESIAN_POINT('',(20.092522711888,-2.30482299912183E-13,1.5));
#730=VERTEX_POINT('',#720);
#740=EDGE_CURVE('',#730,#640,#710,.T.);
#750=ORIENTED_EDGE('',*,*,#740,.T.);
#760=CARTESIAN_POINT('',(0.,-4.84497996376828E-15,1.5));
#770=DIRECTION('',(1.,-1.10910793547834E-14,0.));
#780=VECTOR('',#770,1.);
#790=LINE('',#760,#780);
#800=CARTESIAN_POINT('',(-23.4999999999995,2.55795384873636E-13,1.5));
#810=VERTEX_POINT('',#800);
#820=EDGE_CURVE('',#810,#730,#790,.T.);
#830=ORIENTED_EDGE('',*,*,#820,.T.);
#840=CARTESIAN_POINT('',(-23.4999999999995,1.50000000000026,1.5));
#850=DIRECTION('',(0.,0.,1.));
#860=DIRECTION('',(6.12303176911189E-17,-1.,0.));
#870=AXIS2_PLACEMENT_3D('',#840,#850,#860);
#880=CIRCLE('',#870,1.5);
#890=CARTESIAN_POINT('',(-24.9999999999995,1.50000000000026,1.5));
#900=VERTEX_POINT('',#890);
#910=EDGE_CURVE('',#900,#810,#880,.T.);
#920=ORIENTED_EDGE('',*,*,#910,.T.);
#930=CARTESIAN_POINT('',(-24.9999999999994,0.,1.5));
#940=DIRECTION('',(2.57629628343983E-14,-1.,0.));
#950=VECTOR('',#940,1.);
#960=LINE('',#930,#950);
#970=CARTESIAN_POINT('',(-24.9999999999984,21.4049137802179,1.5));
#980=VERTEX_POINT('',#970);
#990=EDGE_CURVE('',#980,#900,#960,.T.);
#1000=ORIENTED_EDGE('',*,*,#990,.T.);
#1010=CARTESIAN_POINT('',(-23.,21.4049137802183,1.5));
#1020=DIRECTION('',(0.,0.,1.));
#1030=DIRECTION('',(6.12303176911189E-17,-1.,0.));
#1040=AXIS2_PLACEMENT_3D('',#1010,#1020,#1030);
#1050=CIRCLE('',#1040,1.99999999999845);
#1060=CARTESIAN_POINT('',(-24.8793852415705,22.0889540668687,1.5));
#1070=VERTEX_POINT('',#1060);
#1080=EDGE_CURVE('',#1070,#980,#1050,.T.);
#1090=ORIENTED_EDGE('',*,*,#1080,.T.);
#1100=CARTESIAN_POINT('',(-32.9191070279806,0.,1.5));
#1110=DIRECTION('',(-0.342020143325541,-0.939692620785955,0.));
#1120=VECTOR('',#1110,1.);
#1130=LINE('',#1100,#1120);
#1140=CARTESIAN_POINT('',(-22.239485082576,29.3420201433238,1.5));
#1150=VERTEX_POINT('',#1140);
#1160=EDGE_CURVE('',#1150,#1070,#1130,.T.);
#1170=ORIENTED_EDGE('',*,*,#1160,.T.);
#1180=CARTESIAN_POINT('',(-21.29979246179,28.9999999999983,1.5));
#1190=DIRECTION('',(0.,0.,1.));
#1200=DIRECTION('',(6.12303176911189E-17,-1.,0.));
#1210=AXIS2_PLACEMENT_3D('',#1180,#1190,#1200);
#1220=CIRCLE('',#1210,1.);
#1230=CARTESIAN_POINT('',(-21.29979246179,29.9999999999983,1.5));
#1240=VERTEX_POINT('',#1230);
#1250=EDGE_CURVE('',#1240,#1150,#1220,.T.);
#1260=ORIENTED_EDGE('',*,*,#1250,.T.);
#1270=CARTESIAN_POINT('',(0.,29.9999999999981,1.5));
#1280=DIRECTION('',(-1.,5.59088082068629E-15,0.));
#1290=VECTOR('',#1280,1.);
#1300=LINE('',#1270,#1290);
#1310=CARTESIAN_POINT('',(-8.45001181646489,29.9999999999982,1.5));
#1320=VERTEX_POINT('',#1310);
#1330=EDGE_CURVE('',#1320,#1240,#1300,.T.);
#1340=ORIENTED_EDGE('',*,*,#1330,.T.);
#1350=CARTESIAN_POINT('',(-21.1842563027523,0.,1.5));
#1360=DIRECTION('',(-0.390731128489274,-0.92050485345244,0.));
#1370=VECTOR('',#1360,1.);
#1380=LINE('',#1350,#1370);
#1390=CARTESIAN_POINT('',(-6.96434995973049,33.5000000000001,1.5));
#1400=VERTEX_POINT('',#1390);
#1410=EDGE_CURVE('',#1400,#1320,#1380,.T.);
#1420=ORIENTED_EDGE('',*,*,#1410,.T.);
#1430=CARTESIAN_POINT('',(0.,33.5000000000001,1.5));
#1440=DIRECTION('',(-1.,0.,0.));
#1450=VECTOR('',#1440,1.);
#1460=LINE('',#1430,#1450);
#1470=CARTESIAN_POINT('',(6.96434995973005,33.5000000000001,1.5));
#1480=VERTEX_POINT('',#1470);
#1490=EDGE_CURVE('',#1480,#1400,#1460,.T.);
#1500=ORIENTED_EDGE('',*,*,#1490,.T.);
#1510=CARTESIAN_POINT('',(21.1842563027518,0.,1.5));
#1520=DIRECTION('',(-0.390731128489274,0.92050485345244,0.));
#1530=VECTOR('',#1520,1.);
#1540=LINE('',#1510,#1530);
#1550=EDGE_CURVE('',#130,#1480,#1540,.T.);
#1560=ORIENTED_EDGE('',*,*,#1550,.T.);
#1570=EDGE_LOOP('',(#1560,#1500,#1420,#1340,#1260,#1170,#1090,#1000,#920
,#830,#750,#660,#580,#490,#410,#320,#240,#150));
#1580=FACE_OUTER_BOUND('',#1570,.T.);
#1590=ADVANCED_FACE('',(#1580),#50,.T.);
#1600=CARTESIAN_POINT('',(-24.9999999999995,1.50000000000026,0.));
#1610=DIRECTION('',(-1.,-2.57629628343983E-14,-0.));
#1620=DIRECTION('',(-2.57629628343983E-14,1.,0.));
#1630=AXIS2_PLACEMENT_3D('',#1600,#1610,#1620);
#1640=PLANE('',#1630);
#1650=CARTESIAN_POINT('',(-24.9999999999984,21.4049137802179,-3.E-6));
#1660=DIRECTION('',(0.,0.,1.));
#1670=VECTOR('',#1660,1.);
#1680=LINE('',#1650,#1670);
#1690=CARTESIAN_POINT('',(-25.,21.4049137802179,0.));
#1700=VERTEX_POINT('',#1690);
#1710=EDGE_CURVE('',#1700,#980,#1680,.T.);
#1720=ORIENTED_EDGE('',*,*,#1710,.F.);
#1730=ORIENTED_EDGE('',*,*,#990,.F.);
#1740=CARTESIAN_POINT('',(-24.9999999999995,1.50000000000026,
-2.99999999997524E-6));
#1750=DIRECTION('',(0.,0.,1.));
#1760=VECTOR('',#1750,1.);
#1770=LINE('',#1740,#1760);
#1780=CARTESIAN_POINT('',(-24.9999999999995,1.50000000000026,0.));
#1790=VERTEX_POINT('',#1780);
#1800=EDGE_CURVE('',#1790,#900,#1770,.T.);
#1810=ORIENTED_EDGE('',*,*,#1800,.T.);
#1820=CARTESIAN_POINT('',(-24.9999999999994,0.,0.));
#1830=DIRECTION('',(2.57629628343983E-14,-1.,0.));
#1840=VECTOR('',#1830,1.);
#1850=LINE('',#1820,#1840);
#1860=EDGE_CURVE('',#1700,#1790,#1850,.T.);
#1870=ORIENTED_EDGE('',*,*,#1860,.T.);
#1880=EDGE_LOOP('',(#1870,#1810,#1730,#1720));
#1890=FACE_OUTER_BOUND('',#1880,.T.);
#1900=ADVANCED_FACE('',(#1890),#1640,.T.);
#1910=CARTESIAN_POINT('',(-23.4999999999995,1.50000000000026,0.));
#1920=DIRECTION('',(0.,0.,1.));
#1930=DIRECTION('',(6.12303176911189E-17,-1.,0.));
#1940=AXIS2_PLACEMENT_3D('',#1910,#1920,#1930);
#1950=CYLINDRICAL_SURFACE('',#1940,1.5);
#1960=ORIENTED_EDGE('',*,*,#1800,.F.);
#1970=ORIENTED_EDGE('',*,*,#910,.F.);
#1980=CARTESIAN_POINT('',(-23.4999999999995,2.55795384873636E-13,0.));
#1990=DIRECTION('',(0.,0.,1.));
#2000=VECTOR('',#1990,1.);
#2010=LINE('',#1980,#2000);
#2020=CARTESIAN_POINT('',(-23.4999999999995,2.55795384873636E-13,0.));
#2030=VERTEX_POINT('',#2020);
#2040=EDGE_CURVE('',#2030,#810,#2010,.T.);
#2050=ORIENTED_EDGE('',*,*,#2040,.T.);
#2060=CARTESIAN_POINT('',(-23.4999999999995,1.50000000000026,0.));
#2070=DIRECTION('',(0.,0.,1.));
#2080=DIRECTION('',(6.12303176911189E-17,-1.,0.));
#2090=AXIS2_PLACEMENT_3D('',#2060,#2070,#2080);
#2100=CIRCLE('',#2090,1.5);
#2110=EDGE_CURVE('',#1790,#2030,#2100,.T.);
#2120=ORIENTED_EDGE('',*,*,#2110,.T.);
#2130=EDGE_LOOP('',(#2120,#2050,#1970,#1960));
#2140=FACE_OUTER_BOUND('',#2130,.T.);
#2150=ADVANCED_FACE('',(#2140),#1950,.T.);
#2160=CARTESIAN_POINT('',(19.824573519457,-2.27373675443232E-13,0.));
#2170=DIRECTION('',(-1.10910793547834E-14,-1.,-0.));
#2180=DIRECTION('',(-1.,1.10910793547834E-14,0.));
#2190=AXIS2_PLACEMENT_3D('',#2160,#2170,#2180);
#2200=PLANE('',#2190);
#2210=ORIENTED_EDGE('',*,*,#2040,.F.);
#2220=ORIENTED_EDGE('',*,*,#820,.F.);
#2230=CARTESIAN_POINT('',(20.092522711888,-2.30482299912183E-13,0.));
#2240=DIRECTION('',(0.,0.,1.));
#2250=VECTOR('',#2240,1.);
#2260=LINE('',#2230,#2250);
#2270=CARTESIAN_POINT('',(20.092522711888,-2.30482299912183E-13,0.));
#2280=VERTEX_POINT('',#2270);
#2290=EDGE_CURVE('',#2280,#730,#2260,.T.);
#2300=ORIENTED_EDGE('',*,*,#2290,.T.);
#2310=CARTESIAN_POINT('',(0.,-7.49775736419692E-15,0.));
#2320=DIRECTION('',(1.,-1.10910793547834E-14,0.));
#2330=VECTOR('',#2320,1.);
#2340=LINE('',#2310,#2330);
#2350=EDGE_CURVE('',#2030,#2280,#2340,.T.);
#2360=ORIENTED_EDGE('',*,*,#2350,.T.);
#2370=EDGE_LOOP('',(#2360,#2300,#2220,#2210));
#2380=FACE_OUTER_BOUND('',#2370,.T.);
#2390=ADVANCED_FACE('',(#2380),#2200,.T.);
#2400=CARTESIAN_POINT('',(20.092522711888,1.49999999999977,0.));
#2410=DIRECTION('',(0.,0.,1.));
#2420=DIRECTION('',(6.12303176911189E-17,-1.,0.));
#2430=AXIS2_PLACEMENT_3D('',#2400,#2410,#2420);
#2440=CYLINDRICAL_SURFACE('',#2430,1.5);
#2450=ORIENTED_EDGE('',*,*,#2290,.F.);
#2460=ORIENTED_EDGE('',*,*,#740,.F.);
#2470=CARTESIAN_POINT('',(21.3915608175647,0.749999999999805,-3.E-6));
#2480=DIRECTION('',(0.,0.,1.));
#2490=VECTOR('',#2480,1.);
#2500=LINE('',#2470,#2490);
#2510=CARTESIAN_POINT('',(21.3915608175647,0.749999999999805,0.));
#2520=VERTEX_POINT('',#2510);
#2530=EDGE_CURVE('',#2520,#640,#2500,.T.);
#2540=ORIENTED_EDGE('',*,*,#2530,.T.);
#2550=CARTESIAN_POINT('',(20.092522711888,1.49999999999977,0.));
#2560=DIRECTION('',(0.,0.,1.));
#2570=DIRECTION('',(6.12303176911189E-17,-1.,0.));
#2580=AXIS2_PLACEMENT_3D('',#2550,#2560,#2570);
#2590=CIRCLE('',#2580,1.5);
#2600=EDGE_CURVE('',#2280,#2520,#2590,.T.);
#2610=ORIENTED_EDGE('',*,*,#2600,.T.);
#2620=EDGE_LOOP('',(#2610,#2540,#2460,#2450));
#2630=FACE_OUTER_BOUND('',#2620,.T.);
#2640=ADVANCED_FACE('',(#2630),#2440,.T.);
#2650=CARTESIAN_POINT('',(19.7749800638328,-2.050000000002,0.));
#2660=DIRECTION('',(0.866025403784452,-0.499999999999977,0.));
#2670=DIRECTION('',(-0.499999999999977,-0.866025403784452,0.));
#2680=AXIS2_PLACEMENT_3D('',#2650,#2660,#2670);
#2690=PLANE('',#2680);
#2700=CARTESIAN_POINT('',(20.9585481156726,0.,0.));
#2710=DIRECTION('',(0.499999999999977,0.866025403784452,0.));
#2720=VECTOR('',#2710,1.);
#2730=LINE('',#2700,#2720);
#2740=CARTESIAN_POINT('',(24.7320508075689,6.53589838486265,0.));
#2750=VERTEX_POINT('',#2740);
#2760=EDGE_CURVE('',#2520,#2750,#2730,.T.);
#2770=ORIENTED_EDGE('',*,*,#2760,.T.);
#2780=ORIENTED_EDGE('',*,*,#2530,.F.);
#2790=ORIENTED_EDGE('',*,*,#650,.F.);
#2800=CARTESIAN_POINT('',(24.7320508075689,6.53589838486265,1.500003));
#2810=DIRECTION('',(0.,0.,-1.));
#2820=VECTOR('',#2810,1.);
#2830=LINE('',#2800,#2820);
#2840=EDGE_CURVE('',#560,#2750,#2830,.T.);
#2850=ORIENTED_EDGE('',*,*,#2840,.F.);
#2860=EDGE_LOOP('',(#2850,#2790,#2780,#2770));
#2870=FACE_OUTER_BOUND('',#2860,.T.);
#2880=ADVANCED_FACE('',(#2870),#2690,.T.);
#2890=CARTESIAN_POINT('',(25.,21.4049137802183,0.));
#2900=DIRECTION('',(1.,6.12303176911189E-17,0.));
#2910=DIRECTION('',(6.12303176911189E-17,-1.,0.));
#2920=AXIS2_PLACEMENT_3D('',#2890,#2900,#2910);
#2930=PLANE('',#2920);
#2940=CARTESIAN_POINT('',(25.,7.5358983848626,0.));
#2950=DIRECTION('',(0.,0.,-1.));
#2960=VECTOR('',#2950,1.);
#2970=LINE('',#2940,#2960);
#2980=CARTESIAN_POINT('',(25.,7.5358983848626,0.));
#2990=VERTEX_POINT('',#2980);
#3000=EDGE_CURVE('',#470,#2990,#2970,.T.);
#3010=ORIENTED_EDGE('',*,*,#3000,.T.);
#3020=ORIENTED_EDGE('',*,*,#480,.F.);
#3030=CARTESIAN_POINT('',(25.,21.4049137802183,-2.99999999997524E-6));
#3040=DIRECTION('',(0.,0.,1.));
#3050=VECTOR('',#3040,1.);
#3060=LINE('',#3030,#3050);
#3070=CARTESIAN_POINT('',(25.,21.4049137802183,0.));
#3080=VERTEX_POINT('',#3070);
#3090=EDGE_CURVE('',#3080,#390,#3060,.T.);
#3100=ORIENTED_EDGE('',*,*,#3090,.T.);
#3110=CARTESIAN_POINT('',(25.,0.,0.));
#3120=DIRECTION('',(-6.12303176911189E-17,1.,0.));
#3130=VECTOR('',#3120,1.);
#3140=LINE('',#3110,#3130);
#3150=EDGE_CURVE('',#2990,#3080,#3140,.T.);
#3160=ORIENTED_EDGE('',*,*,#3150,.T.);
#3170=EDGE_LOOP('',(#3160,#3100,#3020,#3010));
#3180=FACE_OUTER_BOUND('',#3170,.T.);
#3190=ADVANCED_FACE('',(#3180),#2930,.T.);
#3200=CARTESIAN_POINT('',(-6.96434995973049,33.5,1.5));
#3210=DIRECTION('',(-0.92050485345244,0.390731128489274,0.));
#3220=DIRECTION('',(0.390731128489274,0.92050485345244,0.));
#3230=AXIS2_PLACEMENT_3D('',#3200,#3210,#3220);
#3240=PLANE('',#3230);
#3250=CARTESIAN_POINT('',(-8.45001181646489,29.9999999999982,0.));
#3260=DIRECTION('',(0.,0.,-1.));
#3270=VECTOR('',#3260,1.);
#3280=LINE('',#3250,#3270);
#3290=CARTESIAN_POINT('',(-8.45001181646489,29.9999999999982,0.));
#3300=VERTEX_POINT('',#3290);
#3310=EDGE_CURVE('',#1320,#3300,#3280,.T.);
#3320=ORIENTED_EDGE('',*,*,#3310,.F.);
#3330=CARTESIAN_POINT('',(-21.1842563027523,0.,0.));
#3340=DIRECTION('',(-0.390731128489274,-0.92050485345244,0.));
#3350=VECTOR('',#3340,1.);
#3360=LINE('',#3330,#3350);
#3370=CARTESIAN_POINT('',(-6.96434995973049,33.5000000000001,0.));
#3380=VERTEX_POINT('',#3370);
#3390=EDGE_CURVE('',#3380,#3300,#3360,.T.);
#3400=ORIENTED_EDGE('',*,*,#3390,.T.);
#3410=CARTESIAN_POINT('',(-6.96434995973049,33.5000000000001,0.));
#3420=DIRECTION('',(0.,0.,1.));
#3430=VECTOR('',#3420,1.);
#3440=LINE('',#3410,#3430);
#3450=EDGE_CURVE('',#3380,#1400,#3440,.T.);
#3460=ORIENTED_EDGE('',*,*,#3450,.F.);
#3470=ORIENTED_EDGE('',*,*,#1410,.F.);
#3480=EDGE_LOOP('',(#3470,#3460,#3400,#3320));
#3490=FACE_OUTER_BOUND('',#3480,.T.);
#3500=ADVANCED_FACE('',(#3490),#3240,.T.);
#3510=CARTESIAN_POINT('',(23.,21.4049137802183,0.));
#3520=DIRECTION('',(0.,0.,1.));
#3530=DIRECTION('',(6.12303176911189E-17,-1.,0.));
#3540=AXIS2_PLACEMENT_3D('',#3510,#3520,#3530);
#3550=CYLINDRICAL_SURFACE('',#3540,2.);
#3560=ORIENTED_EDGE('',*,*,#3090,.F.);
#3570=ORIENTED_EDGE('',*,*,#400,.F.);
#3580=CARTESIAN_POINT('',(24.879385241572,22.0889540668692,-3.E-6));
#3590=DIRECTION('',(0.,0.,1.));
#3600=VECTOR('',#3590,1.);
#3610=LINE('',#3580,#3600);
#3620=CARTESIAN_POINT('',(24.879385241572,22.0889540668692,0.));
#3630=VERTEX_POINT('',#3620);
#3640=EDGE_CURVE('',#3630,#300,#3610,.T.);
#3650=ORIENTED_EDGE('',*,*,#3640,.T.);
#3660=CARTESIAN_POINT('',(23.,21.4049137802183,0.));
#3670=DIRECTION('',(0.,0.,1.));
#3680=DIRECTION('',(6.12303176911189E-17,-1.,0.));
#3690=AXIS2_PLACEMENT_3D('',#3660,#3670,#3680);
#3700=CIRCLE('',#3690,2.);
#3710=EDGE_CURVE('',#3080,#3630,#3700,.T.);
#3720=ORIENTED_EDGE('',*,*,#3710,.T.);
#3730=EDGE_LOOP('',(#3720,#3650,#3570,#3560));
#3740=FACE_OUTER_BOUND('',#3730,.T.);
#3750=ADVANCED_FACE('',(#3740),#3550,.T.);
#3760=CARTESIAN_POINT('',(22.239485082576,29.3420201433238,0.));
#3770=DIRECTION('',(0.939692620785954,0.342020143325545,0.));
#3780=DIRECTION('',(0.342020143325545,-0.939692620785954,0.));
#3790=AXIS2_PLACEMENT_3D('',#3760,#3770,#3780);
#3800=PLANE('',#3790);
#3810=ORIENTED_EDGE('',*,*,#3640,.F.);
#3820=ORIENTED_EDGE('',*,*,#310,.F.);
#3830=CARTESIAN_POINT('',(22.239485082576,29.3420201433238,
-2.99999999997524E-6));
#3840=DIRECTION('',(0.,0.,1.));
#3850=VECTOR('',#3840,1.);
#3860=LINE('',#3830,#3850);
#3870=CARTESIAN_POINT('',(22.239485082576,29.3420201433238,0.));
#3880=VERTEX_POINT('',#3870);
#3890=EDGE_CURVE('',#3880,#220,#3860,.T.);
#3900=ORIENTED_EDGE('',*,*,#3890,.T.);
#3910=CARTESIAN_POINT('',(32.9191070279808,0.,0.));
#3920=DIRECTION('',(-0.342020143325545,0.939692620785954,0.));
#3930=VECTOR('',#3920,1.);
#3940=LINE('',#3910,#3930);
#3950=EDGE_CURVE('',#3630,#3880,#3940,.T.);
#3960=ORIENTED_EDGE('',*,*,#3950,.T.);
#3970=EDGE_LOOP('',(#3960,#3900,#3820,#3810));
#3980=FACE_OUTER_BOUND('',#3970,.T.);
#3990=ADVANCED_FACE('',(#3980),#3800,.T.);
#4000=CARTESIAN_POINT('',(21.29979246179,28.9999999999983,0.));
#4010=DIRECTION('',(0.,0.,1.));
#4020=DIRECTION('',(6.12303176911189E-17,-1.,0.));
#4030=AXIS2_PLACEMENT_3D('',#4000,#4010,#4020);
#4040=CYLINDRICAL_SURFACE('',#4030,1.00000000000002);
#4050=ORIENTED_EDGE('',*,*,#3890,.F.);
#4060=ORIENTED_EDGE('',*,*,#230,.F.);
#4070=CARTESIAN_POINT('',(21.29979246179,29.9999999999983,0.));
#4080=DIRECTION('',(0.,0.,1.));
#4090=VECTOR('',#4080,1.);
#4100=LINE('',#4070,#4090);
#4110=CARTESIAN_POINT('',(21.29979246179,29.9999999999983,0.));
#4120=VERTEX_POINT('',#4110);
#4130=EDGE_CURVE('',#4120,#110,#4100,.T.);
#4140=ORIENTED_EDGE('',*,*,#4130,.T.);
#4150=CARTESIAN_POINT('',(21.29979246179,28.9999999999983,0.));
#4160=DIRECTION('',(0.,0.,1.));
#4170=DIRECTION('',(6.12303176911189E-17,-1.,0.));
#4180=AXIS2_PLACEMENT_3D('',#4150,#4160,#4170);
#4190=CIRCLE('',#4180,1.00000000000002);
#4200=EDGE_CURVE('',#3880,#4120,#4190,.T.);
#4210=ORIENTED_EDGE('',*,*,#4200,.T.);
#4220=EDGE_LOOP('',(#4210,#4140,#4060,#4050));
#4230=FACE_OUTER_BOUND('',#4220,.T.);
#4240=ADVANCED_FACE('',(#4230),#4040,.T.);
#4250=CARTESIAN_POINT('',(3.69999999999999,29.9999999999982,0.));
#4260=DIRECTION('',(1.12429919590637E-14,1.,0.));
#4270=DIRECTION('',(1.,-1.12429919590637E-14,0.));
#4280=AXIS2_PLACEMENT_3D('',#4250,#4260,#4270);
#4290=PLANE('',#4280);
#4300=ORIENTED_EDGE('',*,*,#4130,.F.);
#4310=ORIENTED_EDGE('',*,*,#140,.F.);
#4320=CARTESIAN_POINT('',(8.45001181646449,29.9999999999981,0.));
#4330=DIRECTION('',(0.,0.,-1.));
#4340=VECTOR('',#4330,1.);
#4350=LINE('',#4320,#4340);
#4360=CARTESIAN_POINT('',(8.45001181646449,29.9999999999981,0.));
#4370=VERTEX_POINT('',#4360);
#4380=EDGE_CURVE('',#130,#4370,#4350,.T.);
#4390=ORIENTED_EDGE('',*,*,#4380,.F.);
#4400=CARTESIAN_POINT('',(0.,29.9999999999982,0.));
#4410=DIRECTION('',(-1.,1.12429919590637E-14,0.));
#4420=VECTOR('',#4410,1.);
#4430=LINE('',#4400,#4420);
#4440=EDGE_CURVE('',#4120,#4370,#4430,.T.);
#4450=ORIENTED_EDGE('',*,*,#4440,.T.);
#4460=EDGE_LOOP('',(#4450,#4390,#4310,#4300));
#4470=FACE_OUTER_BOUND('',#4460,.T.);
#4480=ADVANCED_FACE('',(#4470),#4290,.T.);
#4490=CARTESIAN_POINT('',(8.45001181646384,30.,1.5));
#4500=DIRECTION('',(0.92050485345244,0.390731128489274,0.));
#4510=DIRECTION('',(0.390731128489274,-0.92050485345244,0.));
#4520=AXIS2_PLACEMENT_3D('',#4490,#4500,#4510);
#4530=PLANE('',#4520);
#4540=CARTESIAN_POINT('',(6.96434995973005,33.5000000000001,0.));
#4550=DIRECTION('',(0.,0.,-1.));
#4560=VECTOR('',#4550,1.);
#4570=LINE('',#4540,#4560);
#4580=CARTESIAN_POINT('',(6.96434995973005,33.5000000000001,0.));
#4590=VERTEX_POINT('',#4580);
#4600=EDGE_CURVE('',#1480,#4590,#4570,.T.);
#4610=ORIENTED_EDGE('',*,*,#4600,.F.);
#4620=CARTESIAN_POINT('',(21.184256302752,0.,0.));
#4630=DIRECTION('',(-0.390731128489274,0.92050485345244,0.));
#4640=VECTOR('',#4630,1.);
#4650=LINE('',#4620,#4640);
#4660=EDGE_CURVE('',#4370,#4590,#4650,.T.);
#4670=ORIENTED_EDGE('',*,*,#4660,.T.);
#4680=ORIENTED_EDGE('',*,*,#4380,.T.);
#4690=ORIENTED_EDGE('',*,*,#1550,.F.);
#4700=EDGE_LOOP('',(#4690,#4680,#4670,#4610));
#4710=FACE_OUTER_BOUND('',#4700,.T.);
#4720=ADVANCED_FACE('',(#4710),#4530,.T.);
#4730=CARTESIAN_POINT('',(6.96434995973021,33.5000000000001,1.5));
#4740=DIRECTION('',(-0.,1.,0.));
#4750=DIRECTION('',(1.,0.,0.));
#4760=AXIS2_PLACEMENT_3D('',#4730,#4740,#4750);
#4770=PLANE('',#4760);
#4780=ORIENTED_EDGE('',*,*,#4600,.T.);
#4790=ORIENTED_EDGE('',*,*,#1490,.F.);
#4800=ORIENTED_EDGE('',*,*,#3450,.T.);
#4810=CARTESIAN_POINT('',(0.,33.5000000000001,0.));
#4820=DIRECTION('',(1.,0.,0.));
#4830=VECTOR('',#4820,1.);
#4840=LINE('',#4810,#4830);
#4850=EDGE_CURVE('',#3380,#4590,#4840,.T.);
#4860=ORIENTED_EDGE('',*,*,#4850,.F.);
#4870=EDGE_LOOP('',(#4860,#4800,#4790,#4780));
#4880=FACE_OUTER_BOUND('',#4870,.T.);
#4890=ADVANCED_FACE('',(#4880),#4770,.T.);
#4900=CARTESIAN_POINT('',(23.,7.5358983848626,0.));
#4910=DIRECTION('',(0.,0.,-1.));
#4920=DIRECTION('',(-1.,0.,0.));
#4930=AXIS2_PLACEMENT_3D('',#4900,#4910,#4920);
#4940=CYLINDRICAL_SURFACE('',#4930,2.);
#4950=ORIENTED_EDGE('',*,*,#570,.T.);
#4960=ORIENTED_EDGE('',*,*,#3000,.F.);
#4970=CARTESIAN_POINT('',(23.,7.5358983848626,0.));
#4980=DIRECTION('',(0.,0.,-1.));
#4990=DIRECTION('',(-1.,0.,0.));
#5000=AXIS2_PLACEMENT_3D('',#4970,#4980,#4990);
#5010=CIRCLE('',#5000,2.);
#5020=EDGE_CURVE('',#2990,#2750,#5010,.T.);
#5030=ORIENTED_EDGE('',*,*,#5020,.F.);
#5040=ORIENTED_EDGE('',*,*,#2840,.T.);
#5050=EDGE_LOOP('',(#5040,#5030,#4960,#4950));
#5060=FACE_OUTER_BOUND('',#5050,.T.);
#5070=ADVANCED_FACE('',(#5060),#4940,.T.);
#5080=CARTESIAN_POINT('',(-21.29979246179,29.9999999999983,0.));
#5090=DIRECTION('',(5.59088082068629E-15,1.,0.));
#5100=DIRECTION('',(1.,-5.59088082068629E-15,0.));
#5110=AXIS2_PLACEMENT_3D('',#5080,#5090,#5100);
#5120=PLANE('',#5110);
#5130=ORIENTED_EDGE('',*,*,#1330,.F.);
#5140=CARTESIAN_POINT('',(-21.29979246179,29.9999999999983,0.));
#5150=DIRECTION('',(0.,0.,1.));
#5160=VECTOR('',#5150,1.);
#5170=LINE('',#5140,#5160);
#5180=CARTESIAN_POINT('',(-21.29979246179,29.9999999999983,0.));
#5190=VERTEX_POINT('',#5180);
#5200=EDGE_CURVE('',#5190,#1240,#5170,.T.);
#5210=ORIENTED_EDGE('',*,*,#5200,.T.);
#5220=CARTESIAN_POINT('',(0.,29.9999999999981,0.));
#5230=DIRECTION('',(-1.,5.59088082068629E-15,0.));
#5240=VECTOR('',#5230,1.);
#5250=LINE('',#5220,#5240);
#5260=EDGE_CURVE('',#3300,#5190,#5250,.T.);
#5270=ORIENTED_EDGE('',*,*,#5260,.T.);
#5280=ORIENTED_EDGE('',*,*,#3310,.T.);
#5290=EDGE_LOOP('',(#5280,#5270,#5210,#5130));
#5300=FACE_OUTER_BOUND('',#5290,.T.);
#5310=ADVANCED_FACE('',(#5300),#5120,.T.);
#5320=CARTESIAN_POINT('',(-21.29979246179,28.9999999999983,0.));
#5330=DIRECTION('',(0.,0.,1.));
#5340=DIRECTION('',(6.12303176911189E-17,-1.,0.));
#5350=AXIS2_PLACEMENT_3D('',#5320,#5330,#5340);
#5360=CYLINDRICAL_SURFACE('',#5350,1.);
#5370=ORIENTED_EDGE('',*,*,#5200,.F.);
#5380=ORIENTED_EDGE('',*,*,#1250,.F.);
#5390=CARTESIAN_POINT('',(-22.239485082576,29.3420201433238,-3.E-6));
#5400=DIRECTION('',(0.,0.,1.));
#5410=VECTOR('',#5400,1.);
#5420=LINE('',#5390,#5410);
#5430=CARTESIAN_POINT('',(-22.239485082576,29.3420201433238,0.));
#5440=VERTEX_POINT('',#5430);
#5450=EDGE_CURVE('',#5440,#1150,#5420,.T.);
#5460=ORIENTED_EDGE('',*,*,#5450,.T.);
#5470=CARTESIAN_POINT('',(-21.29979246179,28.9999999999983,0.));
#5480=DIRECTION('',(0.,0.,1.));
#5490=DIRECTION('',(6.12303176911189E-17,-1.,0.));
#5500=AXIS2_PLACEMENT_3D('',#5470,#5480,#5490);
#5510=CIRCLE('',#5500,1.);
#5520=EDGE_CURVE('',#5190,#5440,#5510,.T.);
#5530=ORIENTED_EDGE('',*,*,#5520,.T.);
#5540=EDGE_LOOP('',(#5530,#5460,#5380,#5370));
#5550=FACE_OUTER_BOUND('',#5540,.T.);
#5560=ADVANCED_FACE('',(#5550),#5360,.T.);
#5570=CARTESIAN_POINT('',(-24.8793852415705,22.0889540668687,0.));
#5580=DIRECTION('',(-0.939692620785955,0.342020143325541,0.));
#5590=DIRECTION('',(0.342020143325541,0.939692620785955,0.));
#5600=AXIS2_PLACEMENT_3D('',#5570,#5580,#5590);
#5610=PLANE('',#5600);
#5620=ORIENTED_EDGE('',*,*,#5450,.F.);
#5630=ORIENTED_EDGE('',*,*,#1160,.F.);
#5640=CARTESIAN_POINT('',(-24.8793852415705,22.0889540668687,
-2.99999999997524E-6));
#5650=DIRECTION('',(0.,0.,1.));
#5660=VECTOR('',#5650,1.);
#5670=LINE('',#5640,#5660);
#5680=CARTESIAN_POINT('',(-24.8793852415705,22.0889540668687,0.));
#5690=VERTEX_POINT('',#5680);
#5700=EDGE_CURVE('',#5690,#1070,#5670,.T.);
#5710=ORIENTED_EDGE('',*,*,#5700,.T.);
#5720=CARTESIAN_POINT('',(-32.9191070279807,0.,0.));
#5730=DIRECTION('',(-0.342020143325541,-0.939692620785955,0.));
#5740=VECTOR('',#5730,1.);
#5750=LINE('',#5720,#5740);
#5760=EDGE_CURVE('',#5440,#5690,#5750,.T.);
#5770=ORIENTED_EDGE('',*,*,#5760,.T.);
#5780=EDGE_LOOP('',(#5770,#5710,#5630,#5620));
#5790=FACE_OUTER_BOUND('',#5780,.T.);
#5800=ADVANCED_FACE('',(#5790),#5610,.T.);
#5810=CARTESIAN_POINT('',(-23.,21.4049137802183,0.));
#5820=DIRECTION('',(0.,0.,1.));
#5830=DIRECTION('',(6.12303176911189E-17,-1.,0.));
#5840=AXIS2_PLACEMENT_3D('',#5810,#5820,#5830);
#5850=CYLINDRICAL_SURFACE('',#5840,1.99999999999845);
#5860=ORIENTED_EDGE('',*,*,#5700,.F.);
#5870=ORIENTED_EDGE('',*,*,#1080,.F.);
#5880=ORIENTED_EDGE('',*,*,#1710,.T.);
#5890=CARTESIAN_POINT('',(-23.,21.4049137802183,0.));
#5900=DIRECTION('',(0.,0.,1.));
#5910=DIRECTION('',(6.12303176911189E-17,-1.,0.));
#5920=AXIS2_PLACEMENT_3D('',#5890,#5900,#5910);
#5930=CIRCLE('',#5920,1.99999999999845);
#5940=EDGE_CURVE('',#5690,#1700,#5930,.T.);
#5950=ORIENTED_EDGE('',*,*,#5940,.T.);
#5960=EDGE_LOOP('',(#5950,#5880,#5870,#5860));
#5970=FACE_OUTER_BOUND('',#5960,.T.);
#5980=ADVANCED_FACE('',(#5970),#5850,.T.);
#5990=CARTESIAN_POINT('',(3.17254273742266,14.1570301821467,0.));
#6000=DIRECTION('',(0.,0.,-1.));
#6010=DIRECTION('',(-1.,0.,0.));
#6020=AXIS2_PLACEMENT_3D('',#5990,#6000,#6010);
#6030=PLANE('',#6020);
#6040=ORIENTED_EDGE('',*,*,#4850,.T.);
#6050=ORIENTED_EDGE('',*,*,#3390,.F.);
#6060=ORIENTED_EDGE('',*,*,#5260,.F.);
#6070=ORIENTED_EDGE('',*,*,#5520,.F.);
#6080=ORIENTED_EDGE('',*,*,#5760,.F.);
#6090=ORIENTED_EDGE('',*,*,#5940,.F.);
#6100=ORIENTED_EDGE('',*,*,#1860,.F.);
#6110=ORIENTED_EDGE('',*,*,#2110,.F.);
#6120=ORIENTED_EDGE('',*,*,#2350,.F.);
#6130=ORIENTED_EDGE('',*,*,#2600,.F.);
#6140=ORIENTED_EDGE('',*,*,#2760,.F.);
#6150=ORIENTED_EDGE('',*,*,#5020,.T.);
#6160=ORIENTED_EDGE('',*,*,#3150,.F.);
#6170=ORIENTED_EDGE('',*,*,#3710,.F.);
#6180=ORIENTED_EDGE('',*,*,#3950,.F.);
#6190=ORIENTED_EDGE('',*,*,#4200,.F.);
#6200=ORIENTED_EDGE('',*,*,#4440,.F.);
#6210=ORIENTED_EDGE('',*,*,#4660,.F.);
#6220=EDGE_LOOP('',(#6210,#6200,#6190,#6180,#6170,#6160,#6150,#6140,
#6130,#6120,#6110,#6100,#6090,#6080,#6070,#6060,#6050,#6040));
#6230=FACE_OUTER_BOUND('',#6220,.T.);
#6240=ADVANCED_FACE('',(#6230),#6030,.T.);
#6250=CLOSED_SHELL('',(#1900,#2150,#2390,#2640,#2880,#3190,#3500,#3750,
#3990,#4240,#4480,#4720,#4890,#5070,#5310,#5560,#5800,#5980,#6240,#1590)
);
#6260=MANIFOLD_SOLID_BREP('',#6250);
#6270=CARTESIAN_POINT('',(0.,0.,0.));
#6280=DIRECTION('',(0.,0.,1.));
#6290=DIRECTION('',(1.,0.,0.));
#6300=AXIS2_PLACEMENT_3D('',#6270,#6280,#6290);
#6310=APPLICATION_CONTEXT(' ');
#6320=APPLICATION_PROTOCOL_DEFINITION(' ','automotive_design',1998,#6310
);
#6330=PRODUCT_CONTEXT('',#6310,'mechanical');
#6340=PRODUCT_DEFINITION_CONTEXT('part definition',#6310,'design');
#6350=PRODUCT('HMT.2-PT','HMT.2-PT','',(#6330));
#6360=PRODUCT_RELATED_PRODUCT_CATEGORY('part',' ',(#6350));
#6370=PRODUCT_DEFINITION_FORMATION_WITH_SPECIFIED_SOURCE('','',#6350,
.BOUGHT.);
#6380=PRODUCT_DEFINITION('',' ',#6370,#6340);
#6390=PRODUCT_DEFINITION_SHAPE('','',#6380);
#6400=DIMENSIONAL_EXPONENTS(1.,0.,0.,0.,0.,0.,0.);
#6410=DIMENSIONAL_EXPONENTS(0.,0.,0.,0.,0.,0.,0.);
#6420=DIMENSIONAL_EXPONENTS(0.,0.,0.,0.,0.,0.,0.);
#6430=(LENGTH_UNIT() NAMED_UNIT(*) SI_UNIT(.MILLI.,.METRE.));
#6440=(NAMED_UNIT(*) PLANE_ANGLE_UNIT() SI_UNIT($,.RADIAN.));
#6450=(NAMED_UNIT(*) SI_UNIT($,.STERADIAN.) SOLID_ANGLE_UNIT());
#6460=(GEOMETRIC_REPRESENTATION_CONTEXT(3) 
GLOBAL_UNCERTAINTY_ASSIGNED_CONTEXT((#6470)) 
GLOBAL_UNIT_ASSIGNED_CONTEXT((#6430,#6440,#6450)) REPRESENTATION_CONTEXT
('',''));
#6470=UNCERTAINTY_MEASURE_WITH_UNIT(LENGTH_MEASURE(1.E-6),#6430,
'distance_accuracy_value','maximum gap value');
#6480=ADVANCED_BREP_SHAPE_REPRESENTATION('',(#6300,#6260),#6460);
#6490=SHAPE_DEFINITION_REPRESENTATION(#6390,#6480);
#6500=COLOUR_RGB('',0.756862819194794,0.756862819194794,
0.756862819194794);
#6510=FILL_AREA_STYLE_COLOUR('',#6500);
#6520=FILL_AREA_STYLE('',(#6510));
#6530=SURFACE_STYLE_FILL_AREA(#6520);
#6540=SURFACE_SIDE_STYLE('',(#6530));
#6550=SURFACE_STYLE_USAGE(.BOTH.,#6540);
#6560=PRESENTATION_STYLE_ASSIGNMENT((#6550));
#6570=STYLED_ITEM('',(#6560),#6260);
#6580=DRAUGHTING_MODEL('',(#6570),#6460);
ENDSEC;
END-ISO-10303-21;
