ISO-10303-21;
HEADER;
FILE_DESCRIPTION (( 'STEP AP203' ),
    '1' );
FILE_NAME ('Êðûøêà íà óãîë âåðòèêàëüíûé âíåøíèé CDV 90_38281.STEP',
    '2012-11-09T08:45:07',
    ( 'Àñååâ' ),
    ( '' ),
    'SwSTEP 2.0',
    'SolidWorks 2012',
    '' );
FILE_SCHEMA (( 'CONFIG_CONTROL_DESIGN' ));
ENDSEC;

DATA;
#1 = CARTESIAN_POINT ( 'NONE',  ( -41.00000000000000000, -14.00000000000000000, 0.0000000000000000000 ) ) ;
#2 = DIRECTION ( 'NONE',  ( -1.000000000000000000, 0.0000000000000000000, 0.0000000000000000000 ) ) ;
#3 = DIRECTION ( 'NONE',  ( -0.0000000000000000000, -0.0000000000000000000, -1.000000000000000000 ) ) ;
#4 = DIRECTION ( 'NONE',  ( 1.000000000000000000, 0.0000000000000000000, 0.0000000000000000000 ) ) ;
#5 = DIRECTION ( 'NONE',  ( 0.0000000000000000000, -0.0000000000000000000, -1.000000000000000000 ) ) ;
#6 = PLANE ( 'NONE',  #407 ) ;
#7 = DIRECTION ( 'NONE',  ( -0.0000000000000000000, 0.0000000000000000000, -1.000000000000000000 ) ) ;
#8 = CARTESIAN_POINT ( 'NONE',  ( -41.00000000000000000, 0.8000000000000000400, 0.0000000000000000000 ) ) ;
#9 = CARTESIAN_POINT ( 'NONE',  ( -41.80000000000000400, 0.8000000000000000400, 0.0000000000000000000 ) ) ;
#10 = DIRECTION ( 'NONE',  ( -0.0000000000000000000, -0.0000000000000000000, -1.000000000000000000 ) ) ;
#11 = DIRECTION ( 'NONE',  ( -0.0000000000000000000, -0.0000000000000000000, -1.000000000000000000 ) ) ;
#12 = CARTESIAN_POINT ( 'NONE',  ( -41.00000000000000000, 0.0000000000000000000, 210.0000000000000000 ) ) ;
#13 = DIRECTION ( 'NONE',  ( -1.000000000000000000, 0.0000000000000000000, 0.0000000000000000000 ) ) ;
#14 = CARTESIAN_POINT ( 'NONE',  ( 41.00000000000000000, -14.00000000000000000, 210.0000000000000000 ) ) ;
#15 = CARTESIAN_POINT ( 'NONE',  ( -41.00000000000000000, 0.0000000000000000000, 210.0000000000000000 ) ) ;
#16 = DIRECTION ( 'NONE',  ( -0.0000000000000000000, -0.0000000000000000000, -1.000000000000000000 ) ) ;
#17 = CARTESIAN_POINT ( 'NONE',  ( -41.00000000000000000, -14.00000000000000000, 0.0000000000000000000 ) ) ;
#18 = CARTESIAN_POINT ( 'NONE',  ( -41.80000000000000400, -14.00000000000000000, 210.0000000000000000 ) ) ;
#19 = DIRECTION ( 'NONE',  ( 0.0000000000000000000, -0.0000000000000000000, -1.000000000000000000 ) ) ;
#20 = PLANE ( 'NONE',  #383 ) ;
#21 = CARTESIAN_POINT ( 'NONE',  ( -41.00000000000000000, 0.0000000000000000000, 210.0000000000000000 ) ) ;
#22 = DIRECTION ( 'NONE',  ( 0.0000000000000000000, -0.0000000000000000000, 1.000000000000000000 ) ) ;
#23 = PLANE ( 'NONE',  #420 ) ;
#24 = DIRECTION ( 'NONE',  ( 0.0000000000000000000, 0.0000000000000000000, -1.000000000000000000 ) ) ;
#25 = DIRECTION ( 'NONE',  ( -0.0000000000000000000, 1.000000000000000000, -0.0000000000000000000 ) ) ;
#26 = CARTESIAN_POINT ( 'NONE',  ( 1.734723475976807100E-015, 0.8000000000000000400, 194.9999999999999700 ) ) ;
#27 = CARTESIAN_POINT ( 'NONE',  ( 0.0000000000000000000, 0.0000000000000000000, 210.0000000000000000 ) ) ;
#28 = DIRECTION ( 'NONE',  ( -0.0000000000000000000, 0.0000000000000000000, -1.000000000000000000 ) ) ;
#29 = DIRECTION ( 'NONE',  ( 0.0000000000000000000, 0.0000000000000000000, 1.000000000000000000 ) ) ;
#30 = DIRECTION ( 'NONE',  ( 0.0000000000000000000, 1.000000000000000000, 0.0000000000000000000 ) ) ;
#31 = CARTESIAN_POINT ( 'NONE',  ( 1.734723475976807100E-015, 0.8000000000000000400, 14.99999999999999300 ) ) ;
#32 = DIRECTION ( 'NONE',  ( -1.000000000000000000, 0.0000000000000000000, 0.0000000000000000000 ) ) ;
#33 = CARTESIAN_POINT ( 'NONE',  ( 41.80000000000000400, 0.8000000000000000400, 210.0000000000000000 ) ) ;
#34 = DIRECTION ( 'NONE',  ( -1.000000000000000000, 0.0000000000000000000, 0.0000000000000000000 ) ) ;
#35 = DIRECTION ( 'NONE',  ( 1.000000000000000000, 0.0000000000000000000, 0.0000000000000000000 ) ) ;
#36 = DIRECTION ( 'NONE',  ( -0.0000000000000000000, 0.0000000000000000000, -1.000000000000000000 ) ) ;
#37 = CARTESIAN_POINT ( 'NONE',  ( 41.80000000000000400, -14.00000000000000000, 210.0000000000000000 ) ) ;
#38 = CARTESIAN_POINT ( 'NONE',  ( 41.80000000000000400, -14.00000000000000000, 0.0000000000000000000 ) ) ;
#39 = CARTESIAN_POINT ( 'NONE',  ( 41.00000000000000000, 0.0000000000000000000, 210.0000000000000000 ) ) ;
#40 = DIRECTION ( 'NONE',  ( 1.000000000000000000, 0.0000000000000000000, -0.0000000000000000000 ) ) ;
#41 = CARTESIAN_POINT ( 'NONE',  ( -41.00000000000000000, -14.00000000000000000, 210.0000000000000000 ) ) ;
#42 = CARTESIAN_POINT ( 'NONE',  ( 41.80000000000000400, -14.00000000000000000, 0.0000000000000000000 ) ) ;
#43 = CARTESIAN_POINT ( 'NONE',  ( -41.00000000000000000, -14.00000000000000000, 210.0000000000000000 ) ) ;
#44 = CARTESIAN_POINT ( 'NONE',  ( 1.734723475976807100E-015, -14.00099999999999900, 14.99999999999999300 ) ) ;
#45 = CARTESIAN_POINT ( 'NONE',  ( 41.00000000000000000, -14.00000000000000000, 210.0000000000000000 ) ) ;
#46 = CARTESIAN_POINT ( 'NONE',  ( 41.00000000000000000, -14.00000000000000000, 0.0000000000000000000 ) ) ;
#47 = PLANE ( 'NONE',  #391 ) ;
#48 = CARTESIAN_POINT ( 'NONE',  ( 41.80000000000000400, 0.8000000000000000400, 0.0000000000000000000 ) ) ;
#49 = CARTESIAN_POINT ( 'NONE',  ( -41.80000000000000400, 0.8000000000000000400, 210.0000000000000000 ) ) ;
#50 = DIRECTION ( 'NONE',  ( 0.0000000000000000000, 0.0000000000000000000, 1.000000000000000000 ) ) ;
#51 = CARTESIAN_POINT ( 'NONE',  ( 41.00000000000000000, 0.0000000000000000000, 0.0000000000000000000 ) ) ;
#52 = DIRECTION ( 'NONE',  ( -0.0000000000000000000, 1.000000000000000000, -0.0000000000000000000 ) ) ;
#53 = CARTESIAN_POINT ( 'NONE',  ( -41.00000000000000000, -14.00000000000000000, 210.0000000000000000 ) ) ;
#54 = PLANE ( 'NONE',  #423 ) ;
#55 = DIRECTION ( 'NONE',  ( 0.0000000000000000000, -1.000000000000000000, 0.0000000000000000000 ) ) ;
#56 = CARTESIAN_POINT ( 'NONE',  ( -41.80000000000000400, -14.00000000000000000, 0.0000000000000000000 ) ) ;
#57 = CARTESIAN_POINT ( 'NONE',  ( 41.80000000000000400, 0.0000000000000000000, 210.0000000000000000 ) ) ;
#58 = CARTESIAN_POINT ( 'NONE',  ( 41.00000000000000000, 0.0000000000000000000, 210.0000000000000000 ) ) ;
#59 = CARTESIAN_POINT ( 'NONE',  ( -41.00000000000000000, -14.00000000000000000, 210.0000000000000000 ) ) ;
#60 = DIRECTION ( 'NONE',  ( -1.000000000000000000, 0.0000000000000000000, 0.0000000000000000000 ) ) ;
#61 = APPROVAL_ROLE ( '' ) ;
#62 = APPROVAL_STATUS ( 'not_yet_approved' ) ;
#63 = DATE_TIME_ROLE ( 'classification_date' ) ;
#64 = CARTESIAN_POINT ( 'NONE',  ( 41.80000000000000400, -14.00000000000000000, 210.0000000000000000 ) ) ;
#65 = PERSON_AND_ORGANIZATION_ROLE ( 'classification_officer' ) ;
#66 = DIRECTION ( 'NONE',  ( 0.0000000000000000000, 1.000000000000000000, 0.0000000000000000000 ) ) ;
#67 = SECURITY_CLASSIFICATION_LEVEL ( 'unclassified' ) ;
#68 = PERSON_AND_ORGANIZATION_ROLE ( 'design_supplier' ) ;
#69 = PERSON_AND_ORGANIZATION_ROLE ( 'creator' ) ;
#70 = APPROVAL_ROLE ( '' ) ;
#71 = CARTESIAN_POINT ( 'NONE',  ( -41.00000000000000000, 0.0000000000000000000, 0.0000000000000000000 ) ) ;
#72 = DIRECTION ( 'NONE',  ( -0.0000000000000000000, -1.000000000000000000, 0.0000000000000000000 ) ) ;
#73 = CARTESIAN_POINT ( 'NONE',  ( 41.80000000000000400, -14.00000000000000000, 210.0000000000000000 ) ) ;
#74 = APPROVAL_STATUS ( 'not_yet_approved' ) ;
#75 = DATE_TIME_ROLE ( 'creation_date' ) ;
#76 = CARTESIAN_POINT ( 'NONE',  ( 41.80000000000000400, -14.00000000000000000, 210.0000000000000000 ) ) ;
#77 = PERSON_AND_ORGANIZATION_ROLE ( 'creator' ) ;
#78 = APPROVAL_ROLE ( '' ) ;
#79 = APPROVAL_STATUS ( 'not_yet_approved' ) ;
#80 = CARTESIAN_POINT ( 'NONE',  ( -41.80000000000000400, 0.0000000000000000000, 0.0000000000000000000 ) ) ;
#81 = APPLICATION_PROTOCOL_DEFINITION ( 'international standard', 'config_control_design', 1994, #82 ) ;
#82 = APPLICATION_CONTEXT ( 'configuration controlled 3d designs of mechanical parts and assemblies' ) ;
#83 = DIRECTION ( 'NONE',  ( -0.0000000000000000000, -0.0000000000000000000, -1.000000000000000000 ) ) ;
#84 = PERSON_AND_ORGANIZATION_ROLE ( 'design_owner' ) ;
#85 = MECHANICAL_CONTEXT ( 'NONE', #87, 'mechanical' ) ;
#86 = DIRECTION ( 'NONE',  ( 1.000000000000000000, 0.0000000000000000000, 0.0000000000000000000 ) ) ;
#87 = APPLICATION_CONTEXT ( 'configuration controlled 3d designs of mechanical parts and assemblies' ) ;
#88 = CARTESIAN_POINT ( 'NONE',  ( -41.80000000000000400, 0.8000000000000000400, 210.0000000000000000 ) ) ;
#89 = CARTESIAN_POINT ( 'NONE',  ( 41.00000000000000000, 0.0000000000000000000, 210.0000000000000000 ) ) ;
#90 = APPLICATION_PROTOCOL_DEFINITION ( 'international standard', 'config_control_design', 1994, #87 ) ;
#91 = DIRECTION ( 'NONE',  ( 0.0000000000000000000, 1.000000000000000000, 0.0000000000000000000 ) ) ;
#92 =( NAMED_UNIT ( * ) SI_UNIT ( $, .STERADIAN. ) SOLID_ANGLE_UNIT ( ) );
#93 =( NAMED_UNIT ( * ) PLANE_ANGLE_UNIT ( ) SI_UNIT ( $, .RADIAN. ) );
#94 =( LENGTH_UNIT ( ) NAMED_UNIT ( * ) SI_UNIT ( .MILLI., .METRE. ) );
#95 = DIRECTION ( 'NONE',  ( 0.0000000000000000000, 0.0000000000000000000, 1.000000000000000000 ) ) ;
#96 = PLANE ( 'NONE',  #400 ) ;
#97 = DIRECTION ( 'NONE',  ( -0.0000000000000000000, -0.0000000000000000000, -1.000000000000000000 ) ) ;
#98 = CARTESIAN_POINT ( 'NONE',  ( -41.80000000000000400, -14.00000000000000000, 210.0000000000000000 ) ) ;
#99 = CARTESIAN_POINT ( 'NONE',  ( 1.734723475976807100E-015, 0.0000000000000000000, 17.49999999999999600 ) ) ;
#100 = CARTESIAN_POINT ( 'NONE',  ( 1.734723475976807100E-015, 0.8000000000000000400, 192.4999999999999700 ) ) ;
#101 = DIRECTION ( 'NONE',  ( 0.0000000000000000000, -1.000000000000000000, 0.0000000000000000000 ) ) ;
#102 = CARTESIAN_POINT ( 'NONE',  ( 0.0000000000000000000, 0.0000000000000000000, 0.0000000000000000000 ) ) ;
#103 = DIRECTION ( 'NONE',  ( -0.0000000000000000000, 1.000000000000000000, -0.0000000000000000000 ) ) ;
#104 = CARTESIAN_POINT ( 'NONE',  ( 1.734723475976807100E-015, 0.0000000000000000000, 197.4999999999999700 ) ) ;
#105 = CARTESIAN_POINT ( 'NONE',  ( 1.734723475976807100E-015, -14.00099999999999900, 194.9999999999999700 ) ) ;
#106 = DIRECTION ( 'NONE',  ( -0.0000000000000000000, -0.0000000000000000000, -1.000000000000000000 ) ) ;
#107 = CARTESIAN_POINT ( 'NONE',  ( -41.00000000000000000, 0.0000000000000000000, 0.0000000000000000000 ) ) ;
#108 = DIRECTION ( 'NONE',  ( 1.000000000000000000, 0.0000000000000000000, 0.0000000000000000000 ) ) ;
#109 = CARTESIAN_POINT ( 'NONE',  ( 1.734723475976807100E-015, 0.8000000000000000400, 17.49999999999999600 ) ) ;
#110 = DIRECTION ( 'NONE',  ( -1.000000000000000000, 0.0000000000000000000, 0.0000000000000000000 ) ) ;
#111 = DIRECTION ( 'NONE',  ( 0.0000000000000000000, -1.000000000000000000, 0.0000000000000000000 ) ) ;
#112 = DIRECTION ( 'NONE',  ( 0.0000000000000000000, 0.0000000000000000000, 1.000000000000000000 ) ) ;
#113 = DIRECTION ( 'NONE',  ( -0.0000000000000000000, -1.000000000000000000, -0.0000000000000000000 ) ) ;
#114 = DIRECTION ( 'NONE',  ( -0.0000000000000000000, -1.000000000000000000, 0.0000000000000000000 ) ) ;
#115 = CARTESIAN_POINT ( 'NONE',  ( 1.734723475976807100E-015, 0.0000000000000000000, 14.99999999999999300 ) ) ;
#116 = CARTESIAN_POINT ( 'NONE',  ( 41.80000000000000400, 0.8000000000000000400, 210.0000000000000000 ) ) ;
#117 = DIRECTION ( 'NONE',  ( 1.000000000000000000, 0.0000000000000000000, 0.0000000000000000000 ) ) ;
#118 = CARTESIAN_POINT ( 'NONE',  ( 41.00000000000000000, 0.0000000000000000000, 210.0000000000000000 ) ) ;
#119 = CARTESIAN_POINT ( 'NONE',  ( -41.80000000000000400, 0.0000000000000000000, 210.0000000000000000 ) ) ;
#120 = DIRECTION ( 'NONE',  ( -0.0000000000000000000, 1.000000000000000000, -0.0000000000000000000 ) ) ;
#121 = DIRECTION ( 'NONE',  ( 0.0000000000000000000, 0.0000000000000000000, 1.000000000000000000 ) ) ;
#122 = DIRECTION ( 'NONE',  ( 0.0000000000000000000, -1.000000000000000000, 0.0000000000000000000 ) ) ;
#123 = DIRECTION ( 'NONE',  ( 0.0000000000000000000, 0.0000000000000000000, 1.000000000000000000 ) ) ;
#124 = DIRECTION ( 'NONE',  ( 0.0000000000000000000, 0.0000000000000000000, 1.000000000000000000 ) ) ;
#125 = DIRECTION ( 'NONE',  ( -0.0000000000000000000, 1.000000000000000000, -0.0000000000000000000 ) ) ;
#126 = DIRECTION ( 'NONE',  ( -0.0000000000000000000, -1.000000000000000000, -0.0000000000000000000 ) ) ;
#127 = CARTESIAN_POINT ( 'NONE',  ( 1.734723475976807100E-015, 0.0000000000000000000, 194.9999999999999700 ) ) ;
#128 = CARTESIAN_POINT ( 'NONE',  ( 41.80000000000000400, 0.0000000000000000000, 0.0000000000000000000 ) ) ;
#129 = CARTESIAN_POINT ( 'NONE',  ( -41.00000000000000000, 0.8000000000000000400, 210.0000000000000000 ) ) ;
#130 = DIRECTION ( 'NONE',  ( 0.0000000000000000000, 1.000000000000000000, 0.0000000000000000000 ) ) ;
#131 = DIRECTION ( 'NONE',  ( -0.0000000000000000000, -0.0000000000000000000, -1.000000000000000000 ) ) ;
#132 = DIRECTION ( 'NONE',  ( 0.0000000000000000000, 1.000000000000000000, 0.0000000000000000000 ) ) ;
#133 = DIRECTION ( 'NONE',  ( -1.000000000000000000, 0.0000000000000000000, 0.0000000000000000000 ) ) ;
#134 = CARTESIAN_POINT ( 'NONE',  ( -41.00000000000000000, 0.0000000000000000000, 210.0000000000000000 ) ) ;
#135 = CARTESIAN_POINT ( 'NONE',  ( -41.00000000000000000, 0.0000000000000000000, 210.0000000000000000 ) ) ;
#136 = DIRECTION ( 'NONE',  ( -0.0000000000000000000, 0.0000000000000000000, -1.000000000000000000 ) ) ;
#137 = CARTESIAN_POINT ( 'NONE',  ( 41.00000000000000000, 0.0000000000000000000, 0.0000000000000000000 ) ) ;
#138 = DIRECTION ( 'NONE',  ( 1.000000000000000000, 0.0000000000000000000, -0.0000000000000000000 ) ) ;
#139 = PLANE ( 'NONE',  #421 ) ;
#140 = CARTESIAN_POINT ( 'NONE',  ( 41.80000000000000400, 0.0000000000000000000, 210.0000000000000000 ) ) ;
#141 = DIRECTION ( 'NONE',  ( 0.0000000000000000000, -0.0000000000000000000, 1.000000000000000000 ) ) ;
#142 = CARTESIAN_POINT ( 'NONE',  ( 0.0000000000000000000, 0.0000000000000000000, 0.0000000000000000000 ) ) ;
#143 = CARTESIAN_POINT ( 'NONE',  ( -41.00000000000000000, 0.0000000000000000000, 0.0000000000000000000 ) ) ;
#144 = PLANE ( 'NONE',  #399 ) ;
#145 = PLANE ( 'NONE',  #403 ) ;
#146 = CARTESIAN_POINT ( 'NONE',  ( -41.80000000000000400, 0.0000000000000000000, 210.0000000000000000 ) ) ;
#147 = DIRECTION ( 'NONE',  ( -1.000000000000000000, 0.0000000000000000000, 0.0000000000000000000 ) ) ;
#148 = PLANE ( 'NONE',  #426 ) ;
#149 = CARTESIAN_POINT ( 'NONE',  ( -41.00000000000000000, 0.0000000000000000000, 210.0000000000000000 ) ) ;
#150 = DIRECTION ( 'NONE',  ( 0.0000000000000000000, 0.0000000000000000000, 1.000000000000000000 ) ) ;
#151 = CARTESIAN_POINT ( 'NONE',  ( -41.00000000000000000, 0.8000000000000000400, 210.0000000000000000 ) ) ;
#152 = FACE_OUTER_BOUND ( 'NONE', #215, .T. ) ;
#153 = FACE_OUTER_BOUND ( 'NONE', #311, .T. ) ;
#154 = VECTOR ( 'NONE', #66, 1000.000000000000000 ) ;
#155 = FACE_OUTER_BOUND ( 'NONE', #185, .T. ) ;
#156 = VERTEX_POINT ( 'NONE', #38 ) ;
#157 = ORIENTED_EDGE ( 'NONE', *, *, #397, .F. ) ;
#158 = LINE ( 'NONE', #64, #202 ) ;
#159 = VECTOR ( 'NONE', #131, 1000.000000000000000 ) ;
#160 = CLOSED_SHELL ( 'NONE', ( #371, #360, #364, #367, #363, #369, #366, #361, #368, #362, #370, #365 ) ) ;
#161 = LINE ( 'NONE', #119, #308 ) ;
#162 = VERTEX_POINT ( 'NONE', #18 ) ;
#163 = VERTEX_POINT ( 'NONE', #9 ) ;
#164 = VERTEX_POINT ( 'NONE', #14 ) ;
#165 = VERTEX_POINT ( 'NONE', #33 ) ;
#166 = LINE ( 'NONE', #41, #231 ) ;
#167 = VECTOR ( 'NONE', #13, 1000.000000000000000 ) ;
#168 = VERTEX_POINT ( 'NONE', #21 ) ;
#169 = VERTEX_POINT ( 'NONE', #37 ) ;
#170 = VERTEX_POINT ( 'NONE', #17 ) ;
#171 = ORIENTED_EDGE ( 'NONE', *, *, #422, .T. ) ;
#172 = FACE_OUTER_BOUND ( 'NONE', #225, .T. ) ;
#173 = VERTEX_POINT ( 'NONE', #46 ) ;
#174 = VERTEX_POINT ( 'NONE', #49 ) ;
#175 = VERTEX_POINT ( 'NONE', #51 ) ;
#176 = ORIENTED_EDGE ( 'NONE', *, *, #404, .T. ) ;
#177 = ORIENTED_EDGE ( 'NONE', *, *, #409, .F. ) ;
#178 = VERTEX_POINT ( 'NONE', #48 ) ;
#179 = VERTEX_POINT ( 'NONE', #71 ) ;
#180 = VERTEX_POINT ( 'NONE', #53 ) ;
#181 = ORIENTED_EDGE ( 'NONE', *, *, #381, .F. ) ;
#182 = LINE ( 'NONE', #43, #334 ) ;
#183 = ORIENTED_EDGE ( 'NONE', *, *, #389, .T. ) ;
#184 = VERTEX_POINT ( 'NONE', #56 ) ;
#185 = EDGE_LOOP ( 'NONE', ( #186, #192, #307, #348 ) ) ;
#186 = ORIENTED_EDGE ( 'NONE', *, *, #378, .F. ) ;
#187 = ORIENTED_EDGE ( 'NONE', *, *, #406, .T. ) ;
#188 = ORIENTED_EDGE ( 'NONE', *, *, #402, .F. ) ;
#189 = FACE_OUTER_BOUND ( 'NONE', #227, .T. ) ;
#190 = EDGE_LOOP ( 'NONE', ( #329, #213, #209, #216 ) ) ;
#191 = ORIENTED_EDGE ( 'NONE', *, *, #380, .T. ) ;
#192 = ORIENTED_EDGE ( 'NONE', *, *, #380, .F. ) ;
#193 = CALENDAR_DATE ( 2012, 9, 11 ) ;
#194 = ORIENTED_EDGE ( 'NONE', *, *, #397, .T. ) ;
#195 = EDGE_LOOP ( 'NONE', ( #220 ) ) ;
#196 = ORIENTED_EDGE ( 'NONE', *, *, #422, .F. ) ;
#197 = ORIENTED_EDGE ( 'NONE', *, *, #406, .F. ) ;
#198 = ORIENTED_EDGE ( 'NONE', *, *, #412, .F. ) ;
#199 = ORIENTED_EDGE ( 'NONE', *, *, #415, .F. ) ;
#200 = ORIENTED_EDGE ( 'NONE', *, *, #410, .T. ) ;
#201 = EDGE_LOOP ( 'NONE', ( #282 ) ) ;
#202 = VECTOR ( 'NONE', #60, 1000.000000000000000 ) ;
#203 = ORIENTED_EDGE ( 'NONE', *, *, #411, .F. ) ;
#204 = ORIENTED_EDGE ( 'NONE', *, *, #418, .T. ) ;
#205 = ORIENTED_EDGE ( 'NONE', *, *, #417, .T. ) ;
#206 = ORIENTED_EDGE ( 'NONE', *, *, #408, .F. ) ;
#207 = ORIENTED_EDGE ( 'NONE', *, *, #394, .T. ) ;
#208 = ORIENTED_EDGE ( 'NONE', *, *, #412, .T. ) ;
#209 = ORIENTED_EDGE ( 'NONE', *, *, #381, .T. ) ;
#210 = ORIENTED_EDGE ( 'NONE', *, *, #424, .F. ) ;
#211 = ORIENTED_EDGE ( 'NONE', *, *, #405, .F. ) ;
#212 = ORIENTED_EDGE ( 'NONE', *, *, #405, .T. ) ;
#213 = ORIENTED_EDGE ( 'NONE', *, *, #413, .F. ) ;
#214 = FACE_BOUND ( 'NONE', #237, .T. ) ;
#215 = EDGE_LOOP ( 'NONE', ( #252, #219, #238, #218 ) ) ;
#216 = ORIENTED_EDGE ( 'NONE', *, *, #382, .T. ) ;
#217 = ORIENTED_EDGE ( 'NONE', *, *, #410, .F. ) ;
#218 = ORIENTED_EDGE ( 'NONE', *, *, #413, .T. ) ;
#219 = ORIENTED_EDGE ( 'NONE', *, *, #414, .F. ) ;
#220 = ORIENTED_EDGE ( 'NONE', *, *, #418, .F. ) ;
#221 = ORIENTED_EDGE ( 'NONE', *, *, #404, .F. ) ;
#222 = ORIENTED_EDGE ( 'NONE', *, *, #384, .F. ) ;
#223 = ORIENTED_EDGE ( 'NONE', *, *, #378, .T. ) ;
#224 = ORIENTED_EDGE ( 'NONE', *, *, #379, .T. ) ;
#225 = EDGE_LOOP ( 'NONE', ( #204 ) ) ;
#226 = EDGE_LOOP ( 'NONE', ( #200 ) ) ;
#227 = EDGE_LOOP ( 'NONE', ( #351, #318, #254, #288, #187, #234, #325, #223 ) ) ;
#228 = EDGE_LOOP ( 'NONE', ( #205, #188, #196, #176 ) ) ;
#229 = EDGE_LOOP ( 'NONE', ( #224, #221, #210, #339 ) ) ;
#230 = FACE_OUTER_BOUND ( 'NONE', #228, .T. ) ;
#231 = VECTOR ( 'NONE', #2, 1000.000000000000000 ) ;
#232 = VECTOR ( 'NONE', #3, 1000.000000000000000 ) ;
#233 = CIRCLE ( 'NONE', #395, 2.500000000000002200 ) ;
#234 = ORIENTED_EDGE ( 'NONE', *, *, #415, .T. ) ;
#235 = ORIENTED_EDGE ( 'NONE', *, *, #424, .T. ) ;
#236 = APPROVAL_DATE_TIME ( #248, #435 ) ;
#237 = EDGE_LOOP ( 'NONE', ( #222 ) ) ;
#238 = ORIENTED_EDGE ( 'NONE', *, *, #389, .F. ) ;
#239 = CALENDAR_DATE ( 2012, 9, 11 ) ;
#240 = LINE ( 'NONE', #137, #270 ) ;
#241 = FACE_OUTER_BOUND ( 'NONE', #349, .T. ) ;
#242 = VECTOR ( 'NONE', #4, 1000.000000000000000 ) ;
#243 = CYLINDRICAL_SURFACE ( 'NONE', #373, 2.500000000000002200 ) ;
#244 = EDGE_LOOP ( 'NONE', ( #317 ) ) ;
#245 = FACE_OUTER_BOUND ( 'NONE', #190, .T. ) ;
#246 = FACE_OUTER_BOUND ( 'NONE', #229, .T. ) ;
#247 = PERSON_AND_ORGANIZATION ( #356, #323 ) ;
#248 = DATE_AND_TIME ( #239, #273 ) ;
#249 = LINE ( 'NONE', #98, #232 ) ;
#250 = LINE ( 'NONE', #8, #242 ) ;
#251 = LINE ( 'NONE', #42, #167 ) ;
#252 = ORIENTED_EDGE ( 'NONE', *, *, #425, .T. ) ;
#253 = EDGE_LOOP ( 'NONE', ( #197, #331, #207, #208 ) ) ;
#254 = ORIENTED_EDGE ( 'NONE', *, *, #425, .F. ) ;
#255 = FACE_OUTER_BOUND ( 'NONE', #244, .T. ) ;
#256 = LINE ( 'NONE', #88, #296 ) ;
#257 = FACE_BOUND ( 'NONE', #293, .T. ) ;
#258 = VECTOR ( 'NONE', #72, 1000.000000000000000 ) ;
#259 = FACE_BOUND ( 'NONE', #287, .T. ) ;
#260 = VECTOR ( 'NONE', #111, 1000.000000000000000 ) ;
#261 = LINE ( 'NONE', #107, #263 ) ;
#262 = VERTEX_POINT ( 'NONE', #104 ) ;
#263 = VECTOR ( 'NONE', #103, 1000.000000000000000 ) ;
#264 = LINE ( 'NONE', #39, #260 ) ;
#265 = VECTOR ( 'NONE', #108, 1000.000000000000000 ) ;
#266 = VERTEX_POINT ( 'NONE', #109 ) ;
#267 = SHAPE_DEFINITION_REPRESENTATION ( #437, #358 ) ;
#268 = LINE ( 'NONE', #12, #265 ) ;
#269 = VERTEX_POINT ( 'NONE', #89 ) ;
#270 = VECTOR ( 'NONE', #122, 1000.000000000000000 ) ;
#271 = DATE_AND_TIME ( #272, #283 ) ;
#272 = CALENDAR_DATE ( 2012, 9, 11 ) ;
#273 = LOCAL_TIME ( 12, 45, 7.000000000000000000, #333 ) ;
#274 = APPROVAL_PERSON_ORGANIZATION ( #276, #433, #78 ) ;
#275 = PERSON_AND_ORGANIZATION ( #356, #323 ) ;
#276 = PERSON_AND_ORGANIZATION ( #356, #323 ) ;
#277 = COORDINATED_UNIVERSAL_TIME_OFFSET ( 4, 0, .AHEAD. ) ;
#278 = COORDINATED_UNIVERSAL_TIME_OFFSET ( 4, 0, .AHEAD. ) ;
#279 = VERTEX_POINT ( 'NONE', #100 ) ;
#280 = APPROVAL_PERSON_ORGANIZATION ( #247, #376, #70 ) ;
#281 = COORDINATED_UNIVERSAL_TIME_OFFSET ( 4, 0, .AHEAD. ) ;
#282 = ORIENTED_EDGE ( 'NONE', *, *, #384, .T. ) ;
#283 = LOCAL_TIME ( 12, 45, 7.000000000000000000, #278 ) ;
#284 = PERSON_AND_ORGANIZATION ( #356, #323 ) ;
#285 = COORDINATED_UNIVERSAL_TIME_OFFSET ( 4, 0, .AHEAD. ) ;
#286 = FACE_OUTER_BOUND ( 'NONE', #201, .T. ) ;
#287 = EDGE_LOOP ( 'NONE', ( #217 ) ) ;
#288 = ORIENTED_EDGE ( 'NONE', *, *, #416, .T. ) ;
#289 = CALENDAR_DATE ( 2012, 9, 11 ) ;
#290 = CALENDAR_DATE ( 2012, 9, 11 ) ;
#291 = APPROVAL_DATE_TIME ( #271, #433 ) ;
#292 = VERTEX_POINT ( 'NONE', #99 ) ;
#293 = EDGE_LOOP ( 'NONE', ( #203 ) ) ;
#294 = LOCAL_TIME ( 12, 45, 7.000000000000000000, #285 ) ;
#295 = DATE_AND_TIME ( #289, #322 ) ;
#296 = VECTOR ( 'NONE', #16, 1000.000000000000000 ) ;
#297 = LINE ( 'NONE', #80, #154 ) ;
#298 = VECTOR ( 'NONE', #97, 1000.000000000000000 ) ;
#299 = LINE ( 'NONE', #15, #342 ) ;
#300 = VECTOR ( 'NONE', #106, 1000.000000000000000 ) ;
#301 = LINE ( 'NONE', #116, #338 ) ;
#302 = VECTOR ( 'NONE', #114, 1000.000000000000000 ) ;
#303 = LINE ( 'NONE', #45, #300 ) ;
#304 = VECTOR ( 'NONE', #117, 1000.000000000000000 ) ;
#305 = CIRCLE ( 'NONE', #392, 2.500000000000002200 ) ;
#306 = LINE ( 'NONE', #118, #298 ) ;
#307 = ORIENTED_EDGE ( 'NONE', *, *, #408, .T. ) ;
#308 = VECTOR ( 'NONE', #130, 1000.000000000000000 ) ;
#309 = LINE ( 'NONE', #128, #302 ) ;
#310 = VECTOR ( 'NONE', #120, 1000.000000000000000 ) ;
#311 = EDGE_LOOP ( 'NONE', ( #335, #211, #346, #191 ) ) ;
#312 = VECTOR ( 'NONE', #147, 1000.000000000000000 ) ;
#313 = DATE_AND_TIME ( #193, #343 ) ;
#314 = APPROVAL_DATE_TIME ( #347, #376 ) ;
#315 = PERSON_AND_ORGANIZATION ( #356, #323 ) ;
#316 = CIRCLE ( 'NONE', #390, 2.500000000000002200 ) ;
#317 = ORIENTED_EDGE ( 'NONE', *, *, #411, .T. ) ;
#318 = ORIENTED_EDGE ( 'NONE', *, *, #379, .F. ) ;
#319 = LINE ( 'NONE', #129, #304 ) ;
#320 = LINE ( 'NONE', #135, #310 ) ;
#321 = PERSON_AND_ORGANIZATION ( #356, #323 ) ;
#322 = LOCAL_TIME ( 12, 45, 7.000000000000000000, #281 ) ;
#323 = ORGANIZATION ( 'UNSPECIFIED', 'UNSPECIFIED', '' ) ;
#324 = APPROVAL_PERSON_ORGANIZATION ( #321, #435, #61 ) ;
#325 = ORIENTED_EDGE ( 'NONE', *, *, #401, .T. ) ;
#326 = ORIENTED_EDGE ( 'NONE', *, *, #394, .F. ) ;
#327 = PERSON_AND_ORGANIZATION ( #356, #323 ) ;
#328 = LINE ( 'NONE', #1, #312 ) ;
#329 = ORIENTED_EDGE ( 'NONE', *, *, #416, .F. ) ;
#330 = CIRCLE ( 'NONE', #374, 2.500000000000002200 ) ;
#331 = ORIENTED_EDGE ( 'NONE', *, *, #382, .F. ) ;
#332 = FACE_BOUND ( 'NONE', #195, .T. ) ;
#333 = COORDINATED_UNIVERSAL_TIME_OFFSET ( 4, 0, .AHEAD. ) ;
#334 = VECTOR ( 'NONE', #11, 1000.000000000000000 ) ;
#335 = ORIENTED_EDGE ( 'NONE', *, *, #401, .F. ) ;
#336 = FACE_OUTER_BOUND ( 'NONE', #337, .T. ) ;
#337 = EDGE_LOOP ( 'NONE', ( #199, #198, #194, #212 ) ) ;
#338 = VECTOR ( 'NONE', #83, 1000.000000000000000 ) ;
#339 = ORIENTED_EDGE ( 'NONE', *, *, #414, .T. ) ;
#340 = PERSON_AND_ORGANIZATION ( #356, #323 ) ;
#341 = FACE_OUTER_BOUND ( 'NONE', #226, .T. ) ;
#342 = VECTOR ( 'NONE', #10, 1000.000000000000000 ) ;
#343 = LOCAL_TIME ( 12, 45, 7.000000000000000000, #277 ) ;
#344 = VECTOR ( 'NONE', #35, 1000.000000000000000 ) ;
#345 = LINE ( 'NONE', #57, #258 ) ;
#346 = ORIENTED_EDGE ( 'NONE', *, *, #409, .T. ) ;
#347 = DATE_AND_TIME ( #290, #294 ) ;
#348 = ORIENTED_EDGE ( 'NONE', *, *, #402, .T. ) ;
#349 = EDGE_LOOP ( 'NONE', ( #171, #206, #177, #157, #326, #181, #183, #235 ) ) ;
#350 = CYLINDRICAL_SURFACE ( 'NONE', #396, 2.500000000000002200 ) ;
#351 = ORIENTED_EDGE ( 'NONE', *, *, #417, .F. ) ;
#352 = LINE ( 'NONE', #143, #344 ) ;
#353 = FACE_OUTER_BOUND ( 'NONE', #253, .T. ) ;
#354 = LINE ( 'NONE', #76, #159 ) ;
#355 = PRODUCT ( 'Êðûøêà íà óãîë âåðòèêàëüíûé âíåøíèé CDV 90_38281', 'Êðûøêà íà óãîë âåðòèêàëüíûé âíåøíèé CDV 90_38281', '', ( #85 ) ) ;
#356 = PERSON ( 'UNSPECIFIED', 'UNSPECIFIED', 'UNSPECIFIED', ('UNSPECIFIED'), ('UNSPECIFIED'), ('UNSPECIFIED') ) ;
#357 = MANIFOLD_SOLID_BREP ( 'Âûðåç-Âûòÿíóòü1', #160 ) ;
#358 = ADVANCED_BREP_SHAPE_REPRESENTATION ( '¦¨v°úð ýð ºóþû òõ¨ªøúðû¹ývù òýõ°ýøù CDV 90_38281', ( #357, #386 ), #388 ) ;
#359 = UNCERTAINTY_MEASURE_WITH_UNIT (LENGTH_MEASURE( 1.000000000000000100E-005 ), #94, 'distance_accuracy_value', 'NONE');
#360 = ADVANCED_FACE ( 'NONE', ( #155 ), #96, .T. ) ;
#361 = ADVANCED_FACE ( 'NONE', ( #214, #332, #246 ), #144, .F. ) ;
#362 = ADVANCED_FACE ( 'NONE', ( #189 ), #139, .T. ) ;
#363 = ADVANCED_FACE ( 'NONE', ( #353 ), #6, .T. ) ;
#364 = ADVANCED_FACE ( 'NONE', ( #153 ), #145, .T. ) ;
#365 = ADVANCED_FACE ( 'NONE', ( #255, #286 ), #243, .F. ) ;
#366 = ADVANCED_FACE ( 'NONE', ( #152 ), #23, .F. ) ;
#367 = ADVANCED_FACE ( 'NONE', ( #257, #259, #336 ), #20, .T. ) ;
#368 = ADVANCED_FACE ( 'NONE', ( #241 ), #148, .F. ) ;
#369 = ADVANCED_FACE ( 'NONE', ( #245 ), #54, .T. ) ;
#370 = ADVANCED_FACE ( 'NONE', ( #341, #172 ), #350, .F. ) ;
#371 = ADVANCED_FACE ( 'NONE', ( #230 ), #47, .F. ) ;
#372 = CC_DESIGN_APPROVAL ( #376, ( #385 ) ) ;
#373 = AXIS2_PLACEMENT_3D ( 'NONE', #105, #125, #50 ) ;
#374 = AXIS2_PLACEMENT_3D ( 'NONE', #115, #113, #112 ) ;
#375 = CC_DESIGN_PERSON_AND_ORGANIZATION_ASSIGNMENT ( #340, #65, ( #428 ) ) ;
#376 = APPROVAL ( #74, 'UNSPECIFIED' ) ;
#377 = CC_DESIGN_DATE_AND_TIME_ASSIGNMENT ( #313, #63, ( #428 ) ) ;
#378 = EDGE_CURVE ( 'NONE', #156, #173, #251, .T. ) ;
#379 = EDGE_CURVE ( 'NONE', #179, #175, #352, .T. ) ;
#380 = EDGE_CURVE ( 'NONE', #169, #156, #354, .T. ) ;
#381 = EDGE_CURVE ( 'NONE', #180, #162, #166, .T. ) ;
#382 = EDGE_CURVE ( 'NONE', #162, #184, #249, .T. ) ;
#383 = AXIS2_PLACEMENT_3D ( 'NONE', #151, #132, #22 ) ;
#384 = EDGE_CURVE ( 'NONE', #262, #262, #233, .T. ) ;
#385 = PRODUCT_DEFINITION_FORMATION_WITH_SPECIFIED_SOURCE ( 'ANY', '', #355, .NOT_KNOWN. ) ;
#386 = AXIS2_PLACEMENT_3D ( 'NONE', #102, #95, #86 ) ;
#387 = CC_DESIGN_APPROVAL ( #435, ( #428 ) ) ;
#388 =( GEOMETRIC_REPRESENTATION_CONTEXT ( 3 ) GLOBAL_UNCERTAINTY_ASSIGNED_CONTEXT ( ( #359 ) ) GLOBAL_UNIT_ASSIGNED_CONTEXT ( ( #94, #93, #92 ) ) REPRESENTATION_CONTEXT ( 'NONE', 'WORKASPACE' ) );
#389 = EDGE_CURVE ( 'NONE', #180, #168, #320, .T. ) ;
#390 = AXIS2_PLACEMENT_3D ( 'NONE', #26, #25, #24 ) ;
#391 = AXIS2_PLACEMENT_3D ( 'NONE', #58, #40, #36 ) ;
#392 = AXIS2_PLACEMENT_3D ( 'NONE', #31, #30, #29 ) ;
#393 = PRODUCT_RELATED_PRODUCT_CATEGORY ( 'detail', '', ( #355 ) ) ;
#394 = EDGE_CURVE ( 'NONE', #162, #174, #161, .T. ) ;
#395 = AXIS2_PLACEMENT_3D ( 'NONE', #127, #126, #124 ) ;
#396 = AXIS2_PLACEMENT_3D ( 'NONE', #44, #52, #123 ) ;
#397 = EDGE_CURVE ( 'NONE', #174, #165, #319, .T. ) ;
#398 = CC_DESIGN_SECURITY_CLASSIFICATION ( #428, ( #385 ) ) ;
#399 = AXIS2_PLACEMENT_3D ( 'NONE', #149, #91, #141 ) ;
#400 = AXIS2_PLACEMENT_3D ( 'NONE', #73, #101, #5 ) ;
#401 = EDGE_CURVE ( 'NONE', #178, #156, #309, .T. ) ;
#402 = EDGE_CURVE ( 'NONE', #164, #173, #303, .T. ) ;
#403 = AXIS2_PLACEMENT_3D ( 'NONE', #140, #138, #7 ) ;
#404 = EDGE_CURVE ( 'NONE', #269, #175, #306, .T. ) ;
#405 = EDGE_CURVE ( 'NONE', #165, #178, #301, .T. ) ;
#406 = EDGE_CURVE ( 'NONE', #184, #163, #297, .T. ) ;
#407 = AXIS2_PLACEMENT_3D ( 'NONE', #146, #110, #121 ) ;
#408 = EDGE_CURVE ( 'NONE', #169, #164, #158, .T. ) ;
#409 = EDGE_CURVE ( 'NONE', #165, #169, #345, .T. ) ;
#410 = EDGE_CURVE ( 'NONE', #266, #266, #305, .T. ) ;
#411 = EDGE_CURVE ( 'NONE', #279, #279, #316, .T. ) ;
#412 = EDGE_CURVE ( 'NONE', #174, #163, #256, .T. ) ;
#413 = EDGE_CURVE ( 'NONE', #180, #170, #182, .T. ) ;
#414 = EDGE_CURVE ( 'NONE', #168, #179, #299, .T. ) ;
#415 = EDGE_CURVE ( 'NONE', #163, #178, #250, .T. ) ;
#416 = EDGE_CURVE ( 'NONE', #170, #184, #328, .T. ) ;
#417 = EDGE_CURVE ( 'NONE', #175, #173, #240, .T. ) ;
#418 = EDGE_CURVE ( 'NONE', #292, #292, #330, .T. ) ;
#419 = CC_DESIGN_PERSON_AND_ORGANIZATION_ASSIGNMENT ( #275, #84, ( #355 ) ) ;
#420 = AXIS2_PLACEMENT_3D ( 'NONE', #134, #133, #150 ) ;
#421 = AXIS2_PLACEMENT_3D ( 'NONE', #142, #136, #34 ) ;
#422 = EDGE_CURVE ( 'NONE', #269, #164, #264, .T. ) ;
#423 = AXIS2_PLACEMENT_3D ( 'NONE', #59, #55, #19 ) ;
#424 = EDGE_CURVE ( 'NONE', #168, #269, #268, .T. ) ;
#425 = EDGE_CURVE ( 'NONE', #170, #179, #261, .T. ) ;
#426 = AXIS2_PLACEMENT_3D ( 'NONE', #27, #28, #32 ) ;
#427 = CC_DESIGN_DATE_AND_TIME_ASSIGNMENT ( #295, #75, ( #432 ) ) ;
#428 = SECURITY_CLASSIFICATION ( '', '', #67 ) ;
#429 = CC_DESIGN_PERSON_AND_ORGANIZATION_ASSIGNMENT ( #315, #69, ( #385 ) ) ;
#430 = CC_DESIGN_APPROVAL ( #433, ( #432 ) ) ;
#431 = CC_DESIGN_PERSON_AND_ORGANIZATION_ASSIGNMENT ( #284, #77, ( #432 ) ) ;
#432 = PRODUCT_DEFINITION ( 'UNKNOWN', '', #385, #436 ) ;
#433 = APPROVAL ( #79, 'UNSPECIFIED' ) ;
#434 = CC_DESIGN_PERSON_AND_ORGANIZATION_ASSIGNMENT ( #327, #68, ( #385 ) ) ;
#435 = APPROVAL ( #62, 'UNSPECIFIED' ) ;
#436 = DESIGN_CONTEXT ( 'detailed design', #82, 'design' ) ;
#437 = PRODUCT_DEFINITION_SHAPE ( 'NONE', 'NONE',  #432 ) ;
ENDSEC;
END-ISO-10303-21;
