ISO-10303-21;
HEADER;
FILE_DESCRIPTION (( 'STEP AP203' ),
    '1' );
FILE_NAME ('Ãèëüçà àëþìèíèåâàÿ GL-70-12 (ÃÀ) EKF.STEP',
    '2016-12-30T10:26:11',
    ( 'kuryshev' ),
    ( '' ),
    'SwSTEP 2.0',
    'SolidWorks 2010',
    '' );
FILE_SCHEMA (( 'CONFIG_CONTROL_DESIGN' ));
ENDSEC;

DATA;
#1 = DIRECTION ( 'NONE',  ( -1.000000000000000000, 1.224646799147353500E-016, 0.0000000000000000000 ) ) ;
#2 = EDGE_CURVE ( 'NONE', #382, #383, #110, .T. ) ;
#3 = EDGE_CURVE ( 'NONE', #386, #384, #109, .T. ) ;
#4 = EDGE_CURVE ( 'NONE', #382, #379, #112, .T. ) ;
#5 = EDGE_CURVE ( 'NONE', #383, #382, #114, .T. ) ;
#6 = EDGE_CURVE ( 'NONE', #381, #383, #113, .T. ) ;
#7 = EDGE_CURVE ( 'NONE', #383, #378, #116, .T. ) ;
#8 = ADVANCED_FACE ( 'NONE', ( #115 ), #117, .T. ) ;
#9 = EDGE_CURVE ( 'NONE', #384, #385, #119, .T. ) ;
#10 = EDGE_CURVE ( 'NONE', #385, #379, #120, .T. ) ;
#11 = EDGE_CURVE ( 'NONE', #381, #380, #121, .T. ) ;
#12 = EDGE_CURVE ( 'NONE', #388, #381, #123, .T. ) ;
#13 = CARTESIAN_POINT ( 'NONE',  ( 0.0000000000000000000, 0.0000000000000000000, 2.000000000000001800 ) ) ;
#14 = EDGE_CURVE ( 'NONE', #380, #382, #122, .T. ) ;
#15 = CARTESIAN_POINT ( 'NONE',  ( 0.0000000000000000000, 0.0000000000000000000, 2.000000000000001800 ) ) ;
#16 = DIRECTION ( 'NONE',  ( -0.0000000000000000000, -0.0000000000000000000, -1.000000000000000000 ) ) ;
#17 = DIRECTION ( 'NONE',  ( 1.000000000000000000, 0.0000000000000000000, 0.0000000000000000000 ) ) ;
#18 = CARTESIAN_POINT ( 'NONE',  ( 8.000000000000000000, 0.0000000000000000000, 2.000000000000001800 ) ) ;
#19 = DIRECTION ( 'NONE',  ( -0.0000000000000000000, -0.0000000000000000000, -1.000000000000000000 ) ) ;
#20 = CARTESIAN_POINT ( 'NONE',  ( 0.0000000000000000000, 0.0000000000000000000, 2.000000000000001800 ) ) ;
#21 = DIRECTION ( 'NONE',  ( 0.0000000000000000000, 0.0000000000000000000, 1.000000000000000000 ) ) ;
#22 = DIRECTION ( 'NONE',  ( 0.0000000000000000000, -1.000000000000000000, 0.0000000000000000000 ) ) ;
#23 = DIRECTION ( 'NONE',  ( 0.0000000000000000000, 0.0000000000000000000, -1.000000000000000000 ) ) ;
#24 = CARTESIAN_POINT ( 'NONE',  ( -7.099999999999999600, 0.0000000000000000000, 1.673320053068150900 ) ) ;
#25 = DIRECTION ( 'NONE',  ( -1.000000000000000000, -1.224646799147353500E-016, 0.0000000000000000000 ) ) ;
#26 = CARTESIAN_POINT ( 'NONE',  ( 0.0000000000000000000, 0.0000000000000000000, 80.00000000000000000 ) ) ;
#27 = DIRECTION ( 'NONE',  ( -0.0000000000000000000, -0.0000000000000000000, -1.000000000000000000 ) ) ;
#28 = DIRECTION ( 'NONE',  ( 1.000000000000000000, 0.0000000000000000000, 0.0000000000000000000 ) ) ;
#29 = CARTESIAN_POINT ( 'NONE',  ( 0.0000000000000000000, 0.0000000000000000000, 80.00000000000000000 ) ) ;
#30 = DIRECTION ( 'NONE',  ( -0.0000000000000000000, -0.0000000000000000000, -1.000000000000000000 ) ) ;
#31 = DIRECTION ( 'NONE',  ( 1.000000000000000000, 0.0000000000000000000, 0.0000000000000000000 ) ) ;
#32 = CARTESIAN_POINT ( 'NONE',  ( 7.099999999999999600, 0.0000000000000000000, 78.32667994693184700 ) ) ;
#33 = CARTESIAN_POINT ( 'NONE',  ( -8.000000000000000000, 9.797174393178825700E-016, 78.00000000000000000 ) ) ;
#34 = DIRECTION ( 'NONE',  ( 0.0000000000000000000, -1.000000000000000000, 0.0000000000000000000 ) ) ;
#35 = EDGE_CURVE ( 'NONE', #385, #384, #125, .T. ) ;
#36 = EDGE_CURVE ( 'NONE', #384, #378, #126, .T. ) ;
#37 = EDGE_CURVE ( 'NONE', #387, #388, #127, .T. ) ;
#38 = AXIS2_PLACEMENT_3D ( 'NONE', #13, #389, #390 ) ;
#39 = AXIS2_PLACEMENT_3D ( 'NONE', #394, #395, #1 ) ;
#40 = EDGE_CURVE ( 'NONE', #388, #387, #128, .T. ) ;
#41 = EDGE_CURVE ( 'NONE', #386, #388, #129, .T. ) ;
#42 = EDGE_CURVE ( 'NONE', #377, #387, #131, .T. ) ;
#43 = EDGE_CURVE ( 'NONE', #387, #380, #132, .T. ) ;
#44 = EDGE_CURVE ( 'NONE', #378, #379, #134, .T. ) ;
#45 = EDGE_CURVE ( 'NONE', #377, #386, #136, .T. ) ;
#46 = EDGE_LOOP ( 'NONE', ( #66, #69, #70, #71 ) ) ;
#47 = EDGE_LOOP ( 'NONE', ( #60, #57, #58, #64 ) ) ;
#48 = EDGE_LOOP ( 'NONE', ( #63, #65, #67, #68 ) ) ;
#49 = EDGE_LOOP ( 'NONE', ( #84, #85, #86, #87 ) ) ;
#50 = EDGE_LOOP ( 'NONE', ( #76, #77, #78, #79 ) ) ;
#51 = EDGE_LOOP ( 'NONE', ( #92, #93, #94, #95 ) ) ;
#52 = EDGE_LOOP ( 'NONE', ( #72, #73, #74, #75 ) ) ;
#53 = EDGE_LOOP ( 'NONE', ( #104, #105, #106, #107 ) ) ;
#54 = EDGE_LOOP ( 'NONE', ( #80, #81, #82, #83 ) ) ;
#55 = EDGE_LOOP ( 'NONE', ( #88, #89, #90, #91 ) ) ;
#56 = EDGE_LOOP ( 'NONE', ( #100, #101, #102, #103 ) ) ;
#57 = ORIENTED_EDGE ( 'NONE', *, *, #42, .T. ) ;
#58 = ORIENTED_EDGE ( 'NONE', *, *, #37, .T. ) ;
#59 = EDGE_LOOP ( 'NONE', ( #96, #97, #98, #99 ) ) ;
#60 = ORIENTED_EDGE ( 'NONE', *, *, #45, .F. ) ;
#61 = FACE_OUTER_BOUND ( 'NONE', #47, .T. ) ;
#62 = CLOSED_SHELL ( 'NONE', ( #197, #196, #201, #198, #202, #200, #204, #208, #8, #203, #199, #209 ) ) ;
#63 = ORIENTED_EDGE ( 'NONE', *, *, #9, .F. ) ;
#64 = ORIENTED_EDGE ( 'NONE', *, *, #41, .F. ) ;
#65 = ORIENTED_EDGE ( 'NONE', *, *, #36, .T. ) ;
#66 = ORIENTED_EDGE ( 'NONE', *, *, #37, .F. ) ;
#67 = ORIENTED_EDGE ( 'NONE', *, *, #44, .T. ) ;
#68 = ORIENTED_EDGE ( 'NONE', *, *, #10, .F. ) ;
#69 = ORIENTED_EDGE ( 'NONE', *, *, #43, .T. ) ;
#70 = ORIENTED_EDGE ( 'NONE', *, *, #11, .F. ) ;
#71 = ORIENTED_EDGE ( 'NONE', *, *, #12, .F. ) ;
#72 = ORIENTED_EDGE ( 'NONE', *, *, #2, .F. ) ;
#73 = ORIENTED_EDGE ( 'NONE', *, *, #4, .T. ) ;
#74 = ORIENTED_EDGE ( 'NONE', *, *, #44, .F. ) ;
#75 = ORIENTED_EDGE ( 'NONE', *, *, #7, .F. ) ;
#76 = ORIENTED_EDGE ( 'NONE', *, *, #397, .T. ) ;
#77 = ORIENTED_EDGE ( 'NONE', *, *, #6, .T. ) ;
#78 = ORIENTED_EDGE ( 'NONE', *, *, #5, .T. ) ;
#79 = ORIENTED_EDGE ( 'NONE', *, *, #14, .F. ) ;
#80 = ORIENTED_EDGE ( 'NONE', *, *, #45, .T. ) ;
#81 = ORIENTED_EDGE ( 'NONE', *, *, #3, .T. ) ;
#82 = ORIENTED_EDGE ( 'NONE', *, *, #9, .T. ) ;
#83 = ORIENTED_EDGE ( 'NONE', *, *, #352, .F. ) ;
#84 = ORIENTED_EDGE ( 'NONE', *, *, #3, .F. ) ;
#85 = ORIENTED_EDGE ( 'NONE', *, *, #353, .T. ) ;
#86 = ORIENTED_EDGE ( 'NONE', *, *, #352, .T. ) ;
#87 = ORIENTED_EDGE ( 'NONE', *, *, #35, .T. ) ;
#88 = ORIENTED_EDGE ( 'NONE', *, *, #6, .F. ) ;
#89 = ORIENTED_EDGE ( 'NONE', *, *, #11, .T. ) ;
#90 = ORIENTED_EDGE ( 'NONE', *, *, #14, .T. ) ;
#91 = ORIENTED_EDGE ( 'NONE', *, *, #2, .T. ) ;
#92 = ORIENTED_EDGE ( 'NONE', *, *, #4, .F. ) ;
#93 = ORIENTED_EDGE ( 'NONE', *, *, #5, .F. ) ;
#94 = ORIENTED_EDGE ( 'NONE', *, *, #7, .T. ) ;
#95 = ORIENTED_EDGE ( 'NONE', *, *, #396, .F. ) ;
#96 = ORIENTED_EDGE ( 'NONE', *, *, #43, .F. ) ;
#97 = ORIENTED_EDGE ( 'NONE', *, *, #40, .F. ) ;
#98 = ORIENTED_EDGE ( 'NONE', *, *, #12, .T. ) ;
#99 = ORIENTED_EDGE ( 'NONE', *, *, #397, .F. ) ;
#100 = ORIENTED_EDGE ( 'NONE', *, *, #36, .F. ) ;
#101 = ORIENTED_EDGE ( 'NONE', *, *, #35, .F. ) ;
#102 = ORIENTED_EDGE ( 'NONE', *, *, #10, .T. ) ;
#103 = ORIENTED_EDGE ( 'NONE', *, *, #396, .T. ) ;
#104 = ORIENTED_EDGE ( 'NONE', *, *, #42, .F. ) ;
#105 = ORIENTED_EDGE ( 'NONE', *, *, #353, .F. ) ;
#106 = ORIENTED_EDGE ( 'NONE', *, *, #41, .T. ) ;
#107 = ORIENTED_EDGE ( 'NONE', *, *, #40, .T. ) ;
#108 = VECTOR ( 'NONE', #393, 1000.000000000000000 ) ;
#109 = LINE ( 'NONE', #376, #108 ) ;
#110 = CIRCLE ( 'NONE', #38, 6.000000000000000900 ) ;
#111 = VECTOR ( 'NONE', #19, 1000.000000000000000 ) ;
#112 = CIRCLE ( 'NONE', #39, 2.000000000000000000 ) ;
#113 = LINE ( 'NONE', #391, #111 ) ;
#114 = CIRCLE ( 'NONE', #210, 6.000000000000000900 ) ;
#115 = FACE_OUTER_BOUND ( 'NONE', #51, .T. ) ;
#116 = CIRCLE ( 'NONE', #211, 2.000000000000000000 ) ;
#117 = TOROIDAL_SURFACE ( 'NONE', #213, 8.000000000000000000, 2.000000000000000000 ) ;
#118 = VECTOR ( 'NONE', #371, 1000.000000000000000 ) ;
#119 = CIRCLE ( 'NONE', #214, 9.000000000000000000 ) ;
#120 = CIRCLE ( 'NONE', #215, 1.899999999999999900 ) ;
#121 = CIRCLE ( 'NONE', #212, 6.000000000000000900 ) ;
#122 = LINE ( 'NONE', #364, #118 ) ;
#123 = CIRCLE ( 'NONE', #217, 2.000000000000001800 ) ;
#124 = TOROIDAL_SURFACE ( 'NONE', #227, 7.099999999999999600, 1.899999999999999900 ) ;
#125 = CIRCLE ( 'NONE', #219, 9.000000000000000000 ) ;
#126 = CIRCLE ( 'NONE', #218, 1.899999999999999700 ) ;
#127 = CIRCLE ( 'NONE', #216, 8.000000000000000000 ) ;
#128 = CIRCLE ( 'NONE', #220, 8.000000000000000000 ) ;
#129 = CIRCLE ( 'NONE', #221, 1.899999999999999000 ) ;
#130 = FACE_OUTER_BOUND ( 'NONE', #48, .T. ) ;
#131 = CIRCLE ( 'NONE', #223, 1.899999999999999700 ) ;
#132 = CIRCLE ( 'NONE', #224, 2.000000000000000000 ) ;
#133 = FACE_OUTER_BOUND ( 'NONE', #46, .T. ) ;
#134 = CIRCLE ( 'NONE', #222, 8.000000000000000000 ) ;
#135 = TOROIDAL_SURFACE ( 'NONE', #229, 8.000000000000000000, 2.000000000000000000 ) ;
#136 = CIRCLE ( 'NONE', #226, 9.000000000000000000 ) ;
#137 = TOROIDAL_SURFACE ( 'NONE', #228, 7.099999999999999600, 1.899999999999999900 ) ;
#138 = TOROIDAL_SURFACE ( 'NONE', #230, 7.099999999999999600, 1.899999999999999900 ) ;
#139 = FACE_OUTER_BOUND ( 'NONE', #52, .T. ) ;
#140 = FACE_OUTER_BOUND ( 'NONE', #59, .T. ) ;
#141 = FACE_OUTER_BOUND ( 'NONE', #56, .T. ) ;
#142 = TOROIDAL_SURFACE ( 'NONE', #225, 8.000000000000000000, 2.000000000000000000 ) ;
#143 = FACE_OUTER_BOUND ( 'NONE', #54, .T. ) ;
#144 = FACE_OUTER_BOUND ( 'NONE', #53, .T. ) ;
#145 = CYLINDRICAL_SURFACE ( 'NONE', #234, 9.000000000000000000 ) ;
#146 = TOROIDAL_SURFACE ( 'NONE', #233, 8.000000000000000000, 2.000000000000000000 ) ;
#147 = FACE_OUTER_BOUND ( 'NONE', #50, .T. ) ;
#148 = CYLINDRICAL_SURFACE ( 'NONE', #239, 6.000000000000000900 ) ;
#149 = CYLINDRICAL_SURFACE ( 'NONE', #236, 6.000000000000000900 ) ;
#150 = FACE_OUTER_BOUND ( 'NONE', #55, .T. ) ;
#151 = FACE_OUTER_BOUND ( 'NONE', #49, .T. ) ;
#152 = TOROIDAL_SURFACE ( 'NONE', #235, 7.099999999999999600, 1.899999999999999900 ) ;
#153 = CYLINDRICAL_SURFACE ( 'NONE', #238, 9.000000000000000000 ) ;
#154 = LINE ( 'NONE', #268, #155 ) ;
#155 = VECTOR ( 'NONE', #269, 1000.000000000000000 ) ;
#156 = CIRCLE ( 'NONE', #232, 9.000000000000000000 ) ;
#157 = CIRCLE ( 'NONE', #241, 8.000000000000000000 ) ;
#158 = CIRCLE ( 'NONE', #243, 6.000000000000000900 ) ;
#159 =( GEOMETRIC_REPRESENTATION_CONTEXT ( 3 ) GLOBAL_UNCERTAINTY_ASSIGNED_CONTEXT ( ( #206 ) ) GLOBAL_UNIT_ASSIGNED_CONTEXT ( ( #288, #287, #291 ) ) REPRESENTATION_CONTEXT ( 'NONE', 'WORKASPACE' ) );
#160 = SHAPE_DEFINITION_REPRESENTATION ( #355, #207 ) ;
#161 = ORGANIZATION ( 'UNSPECIFIED', 'UNSPECIFIED', '' ) ;
#162 = PERSON_AND_ORGANIZATION ( #309, #161 ) ;
#163 = PERSON_AND_ORGANIZATION ( #309, #161 ) ;
#164 = APPROVAL_PERSON_ORGANIZATION ( #163, #242, #302 ) ;
#165 = COORDINATED_UNIVERSAL_TIME_OFFSET ( 3, 0, .AHEAD. ) ;
#166 = LOCAL_TIME ( 13, 26, 11.00000000000000000, #165 ) ;
#167 = CALENDAR_DATE ( 2016, 30, 12 ) ;
#168 = DATE_AND_TIME ( #167, #166 ) ;
#169 = APPROVAL_DATE_TIME ( #168, #242 ) ;
#170 = PERSON_AND_ORGANIZATION ( #309, #161 ) ;
#171 = COORDINATED_UNIVERSAL_TIME_OFFSET ( 3, 0, .AHEAD. ) ;
#172 = LOCAL_TIME ( 13, 26, 11.00000000000000000, #171 ) ;
#173 = CALENDAR_DATE ( 2016, 30, 12 ) ;
#174 = DATE_AND_TIME ( #173, #172 ) ;
#175 = PERSON_AND_ORGANIZATION ( #309, #161 ) ;
#176 = APPROVAL_PERSON_ORGANIZATION ( #175, #248, #306 ) ;
#177 = COORDINATED_UNIVERSAL_TIME_OFFSET ( 3, 0, .AHEAD. ) ;
#178 = LOCAL_TIME ( 13, 26, 11.00000000000000000, #177 ) ;
#179 = CALENDAR_DATE ( 2016, 30, 12 ) ;
#180 = DATE_AND_TIME ( #179, #178 ) ;
#181 = APPROVAL_DATE_TIME ( #180, #248 ) ;
#182 = PERSON_AND_ORGANIZATION ( #309, #161 ) ;
#183 = PERSON_AND_ORGANIZATION ( #309, #161 ) ;
#184 = PERSON_AND_ORGANIZATION ( #309, #161 ) ;
#185 = COORDINATED_UNIVERSAL_TIME_OFFSET ( 3, 0, .AHEAD. ) ;
#186 = LOCAL_TIME ( 13, 26, 11.00000000000000000, #185 ) ;
#187 = CALENDAR_DATE ( 2016, 30, 12 ) ;
#188 = DATE_AND_TIME ( #187, #186 ) ;
#189 = PERSON_AND_ORGANIZATION ( #309, #161 ) ;
#190 = APPROVAL_PERSON_ORGANIZATION ( #189, #255, #314 ) ;
#191 = COORDINATED_UNIVERSAL_TIME_OFFSET ( 3, 0, .AHEAD. ) ;
#192 = LOCAL_TIME ( 13, 26, 11.00000000000000000, #191 ) ;
#193 = CALENDAR_DATE ( 2016, 30, 12 ) ;
#194 = DATE_AND_TIME ( #193, #192 ) ;
#195 = APPROVAL_DATE_TIME ( #194, #255 ) ;
#196 = ADVANCED_FACE ( 'NONE', ( #130 ), #137, .T. ) ;
#197 = ADVANCED_FACE ( 'NONE', ( #61 ), #124, .T. ) ;
#198 = ADVANCED_FACE ( 'NONE', ( #139 ), #135, .T. ) ;
#199 = ADVANCED_FACE ( 'NONE', ( #141 ), #138, .T. ) ;
#200 = ADVANCED_FACE ( 'NONE', ( #143 ), #145, .T. ) ;
#201 = ADVANCED_FACE ( 'NONE', ( #133 ), #142, .T. ) ;
#202 = ADVANCED_FACE ( 'NONE', ( #147 ), #149, .F. ) ;
#203 = ADVANCED_FACE ( 'NONE', ( #140 ), #146, .T. ) ;
#204 = ADVANCED_FACE ( 'NONE', ( #151 ), #153, .T. ) ;
#205 = MANIFOLD_SOLID_BREP ( 'Ñêðóãëåíèå2', #62 ) ;
#206 = UNCERTAINTY_MEASURE_WITH_UNIT (LENGTH_MEASURE( 1.000000000000000100E-005 ), #288, 'distance_accuracy_value', 'NONE');
#207 = ADVANCED_BREP_SHAPE_REPRESENTATION ( 'Ãèëüçà àëþìèíèåâàÿ GL-70-12 (ÃÀ) EKF', ( #205, #231 ), #159 ) ;
#208 = ADVANCED_FACE ( 'NONE', ( #150 ), #148, .F. ) ;
#209 = ADVANCED_FACE ( 'NONE', ( #144 ), #152, .T. ) ;
#210 = AXIS2_PLACEMENT_3D ( 'NONE', #15, #16, #17 ) ;
#211 = AXIS2_PLACEMENT_3D ( 'NONE', #18, #22, #23 ) ;
#212 = AXIS2_PLACEMENT_3D ( 'NONE', #363, #365, #366 ) ;
#213 = AXIS2_PLACEMENT_3D ( 'NONE', #20, #21, #357 ) ;
#214 = AXIS2_PLACEMENT_3D ( 'NONE', #392, #358, #359 ) ;
#215 = AXIS2_PLACEMENT_3D ( 'NONE', #24, #361, #362 ) ;
#216 = AXIS2_PLACEMENT_3D ( 'NONE', #26, #27, #28 ) ;
#217 = AXIS2_PLACEMENT_3D ( 'NONE', #360, #368, #369 ) ;
#218 = AXIS2_PLACEMENT_3D ( 'NONE', #374, #375, #25 ) ;
#219 = AXIS2_PLACEMENT_3D ( 'NONE', #370, #372, #373 ) ;
#220 = AXIS2_PLACEMENT_3D ( 'NONE', #29, #30, #31 ) ;
#221 = AXIS2_PLACEMENT_3D ( 'NONE', #32, #34, #315 ) ;
#222 = AXIS2_PLACEMENT_3D ( 'NONE', #321, #322, #323 ) ;
#223 = AXIS2_PLACEMENT_3D ( 'NONE', #367, #316, #317 ) ;
#224 = AXIS2_PLACEMENT_3D ( 'NONE', #33, #319, #320 ) ;
#225 = AXIS2_PLACEMENT_3D ( 'NONE', #343, #346, #347 ) ;
#226 = AXIS2_PLACEMENT_3D ( 'NONE', #318, #326, #327 ) ;
#227 = AXIS2_PLACEMENT_3D ( 'NONE', #328, #325, #334 ) ;
#228 = AXIS2_PLACEMENT_3D ( 'NONE', #329, #330, #331 ) ;
#229 = AXIS2_PLACEMENT_3D ( 'NONE', #324, #333, #337 ) ;
#230 = AXIS2_PLACEMENT_3D ( 'NONE', #332, #336, #340 ) ;
#231 = AXIS2_PLACEMENT_3D ( 'NONE', #292, #293, #294 ) ;
#232 = AXIS2_PLACEMENT_3D ( 'NONE', #270, #273, #274 ) ;
#233 = AXIS2_PLACEMENT_3D ( 'NONE', #349, #344, #259 ) ;
#234 = AXIS2_PLACEMENT_3D ( 'NONE', #341, #335, #339 ) ;
#235 = AXIS2_PLACEMENT_3D ( 'NONE', #351, #350, #267 ) ;
#236 = AXIS2_PLACEMENT_3D ( 'NONE', #338, #342, #345 ) ;
#237 = PRODUCT_DEFINITION ( 'UNKNOWN', '', #247, #354 ) ;
#238 = AXIS2_PLACEMENT_3D ( 'NONE', #260, #261, #262 ) ;
#239 = AXIS2_PLACEMENT_3D ( 'NONE', #263, #264, #265 ) ;
#240 = CC_DESIGN_PERSON_AND_ORGANIZATION_ASSIGNMENT ( #162, #298, ( #356 ) ) ;
#241 = AXIS2_PLACEMENT_3D ( 'NONE', #284, #285, #286 ) ;
#242 = APPROVAL ( #301, 'UNSPECIFIED' ) ;
#243 = AXIS2_PLACEMENT_3D ( 'NONE', #283, #289, #290 ) ;
#244 = CC_DESIGN_APPROVAL ( #242, ( #237 ) ) ;
#245 = CC_DESIGN_PERSON_AND_ORGANIZATION_ASSIGNMENT ( #170, #303, ( #237 ) ) ;
#246 = CC_DESIGN_DATE_AND_TIME_ASSIGNMENT ( #174, #304, ( #237 ) ) ;
#247 = PRODUCT_DEFINITION_FORMATION_WITH_SPECIFIED_SOURCE ( 'ANY', '', #356, .NOT_KNOWN. ) ;
#248 = APPROVAL ( #305, 'UNSPECIFIED' ) ;
#249 = CC_DESIGN_APPROVAL ( #248, ( #247 ) ) ;
#250 = CC_DESIGN_PERSON_AND_ORGANIZATION_ASSIGNMENT ( #182, #307, ( #247 ) ) ;
#251 = CC_DESIGN_PERSON_AND_ORGANIZATION_ASSIGNMENT ( #183, #308, ( #247 ) ) ;
#252 = SECURITY_CLASSIFICATION ( '', '', #310 ) ;
#253 = CC_DESIGN_PERSON_AND_ORGANIZATION_ASSIGNMENT ( #184, #311, ( #252 ) ) ;
#254 = CC_DESIGN_DATE_AND_TIME_ASSIGNMENT ( #188, #312, ( #252 ) ) ;
#255 = APPROVAL ( #313, 'UNSPECIFIED' ) ;
#256 = CC_DESIGN_APPROVAL ( #255, ( #252 ) ) ;
#257 = CC_DESIGN_SECURITY_CLASSIFICATION ( #252, ( #247 ) ) ;
#258 = PRODUCT_RELATED_PRODUCT_CATEGORY ( 'detail', '', ( #356 ) ) ;
#259 = DIRECTION ( 'NONE',  ( 1.000000000000000000, 0.0000000000000000000, 0.0000000000000000000 ) ) ;
#260 = CARTESIAN_POINT ( 'NONE',  ( 0.0000000000000000000, 0.0000000000000000000, 80.00000000000000000 ) ) ;
#261 = DIRECTION ( 'NONE',  ( -0.0000000000000000000, -0.0000000000000000000, -1.000000000000000000 ) ) ;
#262 = DIRECTION ( 'NONE',  ( -1.000000000000000000, 0.0000000000000000000, 0.0000000000000000000 ) ) ;
#263 = CARTESIAN_POINT ( 'NONE',  ( 0.0000000000000000000, 0.0000000000000000000, 80.00000000000000000 ) ) ;
#264 = DIRECTION ( 'NONE',  ( -0.0000000000000000000, -0.0000000000000000000, -1.000000000000000000 ) ) ;
#265 = DIRECTION ( 'NONE',  ( -1.000000000000000000, 0.0000000000000000000, 0.0000000000000000000 ) ) ;
#266 = CARTESIAN_POINT ( 'NONE',  ( 6.000000000000000900, 7.347880794884120700E-016, 2.000000000000001800 ) ) ;
#267 = DIRECTION ( 'NONE',  ( 1.000000000000000000, 0.0000000000000000000, 0.0000000000000000000 ) ) ;
#268 = CARTESIAN_POINT ( 'NONE',  ( -9.000000000000000000, 0.0000000000000000000, 80.00000000000000000 ) ) ;
#269 = DIRECTION ( 'NONE',  ( -0.0000000000000000000, -0.0000000000000000000, -1.000000000000000000 ) ) ;
#270 = CARTESIAN_POINT ( 'NONE',  ( 0.0000000000000000000, 0.0000000000000000000, 78.32667994693184700 ) ) ;
#271 = CARTESIAN_POINT ( 'NONE',  ( -9.000000000000000000, 0.0000000000000000000, 78.32667994693184700 ) ) ;
#272 = CARTESIAN_POINT ( 'NONE',  ( 8.000000000000000000, 0.0000000000000000000, 8.673617379884035500E-016 ) ) ;
#273 = DIRECTION ( 'NONE',  ( -0.0000000000000000000, -0.0000000000000000000, -1.000000000000000000 ) ) ;
#274 = DIRECTION ( 'NONE',  ( 1.000000000000000000, 0.0000000000000000000, 0.0000000000000000000 ) ) ;
#275 = CARTESIAN_POINT ( 'NONE',  ( -8.000000000000000000, 9.797174393178825700E-016, 8.673617379884035500E-016 ) ) ;
#276 = CARTESIAN_POINT ( 'NONE',  ( -6.000000000000000900, 0.0000000000000000000, 78.00000000000000000 ) ) ;
#277 = CARTESIAN_POINT ( 'NONE',  ( 6.000000000000000900, 7.347880794884120700E-016, 78.00000000000000000 ) ) ;
#278 = CARTESIAN_POINT ( 'NONE',  ( 9.000000000000000000, 1.102182119232617700E-015, 1.673320053068152900 ) ) ;
#279 = CARTESIAN_POINT ( 'NONE',  ( -9.000000000000000000, 0.0000000000000000000, 1.673320053068152900 ) ) ;
#280 = CARTESIAN_POINT ( 'NONE',  ( 9.000000000000000000, 1.102182119232617700E-015, 78.32667994693184700 ) ) ;
#281 = CARTESIAN_POINT ( 'NONE',  ( -8.000000000000000000, 9.797174393178825700E-016, 80.00000000000000000 ) ) ;
#282 = CARTESIAN_POINT ( 'NONE',  ( 8.000000000000000000, 0.0000000000000000000, 80.00000000000000000 ) ) ;
#283 = CARTESIAN_POINT ( 'NONE',  ( 0.0000000000000000000, 0.0000000000000000000, 78.00000000000000000 ) ) ;
#284 = CARTESIAN_POINT ( 'NONE',  ( 0.0000000000000000000, 0.0000000000000000000, 0.0000000000000000000 ) ) ;
#285 = DIRECTION ( 'NONE',  ( 0.0000000000000000000, 0.0000000000000000000, 1.000000000000000000 ) ) ;
#286 = DIRECTION ( 'NONE',  ( 1.000000000000000000, 0.0000000000000000000, 0.0000000000000000000 ) ) ;
#287 =( NAMED_UNIT ( * ) PLANE_ANGLE_UNIT ( ) SI_UNIT ( $, .RADIAN. ) );
#288 =( LENGTH_UNIT ( ) NAMED_UNIT ( * ) SI_UNIT ( .MILLI., .METRE. ) );
#289 = DIRECTION ( 'NONE',  ( 0.0000000000000000000, 0.0000000000000000000, 1.000000000000000000 ) ) ;
#290 = DIRECTION ( 'NONE',  ( 1.000000000000000000, 0.0000000000000000000, 0.0000000000000000000 ) ) ;
#291 =( NAMED_UNIT ( * ) SI_UNIT ( $, .STERADIAN. ) SOLID_ANGLE_UNIT ( ) );
#292 = CARTESIAN_POINT ( 'NONE',  ( 0.0000000000000000000, 0.0000000000000000000, 0.0000000000000000000 ) ) ;
#293 = DIRECTION ( 'NONE',  ( 0.0000000000000000000, 0.0000000000000000000, 1.000000000000000000 ) ) ;
#294 = DIRECTION ( 'NONE',  ( 1.000000000000000000, 0.0000000000000000000, 0.0000000000000000000 ) ) ;
#295 = APPLICATION_CONTEXT ( 'configuration controlled 3d designs of mechanical parts and assemblies' ) ;
#296 = APPLICATION_PROTOCOL_DEFINITION ( 'international standard', 'config_control_design', 1994, #295 ) ;
#297 = MECHANICAL_CONTEXT ( 'NONE', #295, 'mechanical' ) ;
#298 = PERSON_AND_ORGANIZATION_ROLE ( 'design_owner' ) ;
#299 = APPLICATION_CONTEXT ( 'configuration controlled 3d designs of mechanical parts and assemblies' ) ;
#300 = APPLICATION_PROTOCOL_DEFINITION ( 'international standard', 'config_control_design', 1994, #299 ) ;
#301 = APPROVAL_STATUS ( 'not_yet_approved' ) ;
#302 = APPROVAL_ROLE ( '' ) ;
#303 = PERSON_AND_ORGANIZATION_ROLE ( 'creator' ) ;
#304 = DATE_TIME_ROLE ( 'creation_date' ) ;
#305 = APPROVAL_STATUS ( 'not_yet_approved' ) ;
#306 = APPROVAL_ROLE ( '' ) ;
#307 = PERSON_AND_ORGANIZATION_ROLE ( 'creator' ) ;
#308 = PERSON_AND_ORGANIZATION_ROLE ( 'design_supplier' ) ;
#309 = PERSON ( 'UNSPECIFIED', 'UNSPECIFIED', 'UNSPECIFIED', ('UNSPECIFIED'), ('UNSPECIFIED'), ('UNSPECIFIED') ) ;
#310 = SECURITY_CLASSIFICATION_LEVEL ( 'unclassified' ) ;
#311 = PERSON_AND_ORGANIZATION_ROLE ( 'classification_officer' ) ;
#312 = DATE_TIME_ROLE ( 'classification_date' ) ;
#313 = APPROVAL_STATUS ( 'not_yet_approved' ) ;
#314 = APPROVAL_ROLE ( '' ) ;
#315 = DIRECTION ( 'NONE',  ( 0.0000000000000000000, 0.0000000000000000000, -1.000000000000000000 ) ) ;
#316 = DIRECTION ( 'NONE',  ( 1.224646799147353200E-016, 1.000000000000000000, -0.0000000000000000000 ) ) ;
#317 = DIRECTION ( 'NONE',  ( -1.000000000000000000, 1.224646799147353000E-016, 0.0000000000000000000 ) ) ;
#318 = CARTESIAN_POINT ( 'NONE',  ( 0.0000000000000000000, 0.0000000000000000000, 78.32667994693184700 ) ) ;
#319 = DIRECTION ( 'NONE',  ( 1.224646799147353200E-016, 1.000000000000000000, -0.0000000000000000000 ) ) ;
#320 = DIRECTION ( 'NONE',  ( -1.000000000000000000, 1.224646799147353500E-016, 0.0000000000000000000 ) ) ;
#321 = CARTESIAN_POINT ( 'NONE',  ( 0.0000000000000000000, 0.0000000000000000000, 0.0000000000000000000 ) ) ;
#322 = DIRECTION ( 'NONE',  ( 0.0000000000000000000, 0.0000000000000000000, 1.000000000000000000 ) ) ;
#323 = DIRECTION ( 'NONE',  ( 1.000000000000000000, 0.0000000000000000000, 0.0000000000000000000 ) ) ;
#324 = CARTESIAN_POINT ( 'NONE',  ( 0.0000000000000000000, 0.0000000000000000000, 2.000000000000001800 ) ) ;
#325 = DIRECTION ( 'NONE',  ( 0.0000000000000000000, 0.0000000000000000000, 1.000000000000000000 ) ) ;
#326 = DIRECTION ( 'NONE',  ( -0.0000000000000000000, -0.0000000000000000000, -1.000000000000000000 ) ) ;
#327 = DIRECTION ( 'NONE',  ( 1.000000000000000000, 0.0000000000000000000, 0.0000000000000000000 ) ) ;
#328 = CARTESIAN_POINT ( 'NONE',  ( 0.0000000000000000000, 0.0000000000000000000, 78.32667994693184700 ) ) ;
#329 = CARTESIAN_POINT ( 'NONE',  ( 0.0000000000000000000, 0.0000000000000000000, 1.673320053068150900 ) ) ;
#330 = DIRECTION ( 'NONE',  ( -0.0000000000000000000, -0.0000000000000000000, -1.000000000000000000 ) ) ;
#331 = DIRECTION ( 'NONE',  ( -1.000000000000000000, 0.0000000000000000000, 0.0000000000000000000 ) ) ;
#332 = CARTESIAN_POINT ( 'NONE',  ( 0.0000000000000000000, 0.0000000000000000000, 1.673320053068150900 ) ) ;
#333 = DIRECTION ( 'NONE',  ( 0.0000000000000000000, 0.0000000000000000000, 1.000000000000000000 ) ) ;
#334 = DIRECTION ( 'NONE',  ( 1.000000000000000000, 0.0000000000000000000, 0.0000000000000000000 ) ) ;
#335 = DIRECTION ( 'NONE',  ( -0.0000000000000000000, -0.0000000000000000000, -1.000000000000000000 ) ) ;
#336 = DIRECTION ( 'NONE',  ( -0.0000000000000000000, -0.0000000000000000000, -1.000000000000000000 ) ) ;
#337 = DIRECTION ( 'NONE',  ( 1.000000000000000000, 0.0000000000000000000, 0.0000000000000000000 ) ) ;
#338 = CARTESIAN_POINT ( 'NONE',  ( 0.0000000000000000000, 0.0000000000000000000, 80.00000000000000000 ) ) ;
#339 = DIRECTION ( 'NONE',  ( -1.000000000000000000, 0.0000000000000000000, 0.0000000000000000000 ) ) ;
#340 = DIRECTION ( 'NONE',  ( -1.000000000000000000, 0.0000000000000000000, 0.0000000000000000000 ) ) ;
#341 = CARTESIAN_POINT ( 'NONE',  ( 0.0000000000000000000, 0.0000000000000000000, 80.00000000000000000 ) ) ;
#342 = DIRECTION ( 'NONE',  ( -0.0000000000000000000, -0.0000000000000000000, -1.000000000000000000 ) ) ;
#343 = CARTESIAN_POINT ( 'NONE',  ( 0.0000000000000000000, 0.0000000000000000000, 78.00000000000000000 ) ) ;
#344 = DIRECTION ( 'NONE',  ( 0.0000000000000000000, 0.0000000000000000000, 1.000000000000000000 ) ) ;
#345 = DIRECTION ( 'NONE',  ( -1.000000000000000000, 0.0000000000000000000, 0.0000000000000000000 ) ) ;
#346 = DIRECTION ( 'NONE',  ( 0.0000000000000000000, 0.0000000000000000000, 1.000000000000000000 ) ) ;
#347 = DIRECTION ( 'NONE',  ( 1.000000000000000000, 0.0000000000000000000, 0.0000000000000000000 ) ) ;
#348 = CARTESIAN_POINT ( 'NONE',  ( -6.000000000000000900, 0.0000000000000000000, 2.000000000000001800 ) ) ;
#349 = CARTESIAN_POINT ( 'NONE',  ( 0.0000000000000000000, 0.0000000000000000000, 78.00000000000000000 ) ) ;
#350 = DIRECTION ( 'NONE',  ( 0.0000000000000000000, 0.0000000000000000000, 1.000000000000000000 ) ) ;
#351 = CARTESIAN_POINT ( 'NONE',  ( 0.0000000000000000000, 0.0000000000000000000, 78.32667994693184700 ) ) ;
#352 = EDGE_CURVE ( 'NONE', #377, #385, #154, .T. ) ;
#353 = EDGE_CURVE ( 'NONE', #386, #377, #156, .T. ) ;
#354 = DESIGN_CONTEXT ( 'detailed design', #299, 'design' ) ;
#355 = PRODUCT_DEFINITION_SHAPE ( 'NONE', 'NONE',  #237 ) ;
#356 = PRODUCT ( 'Ãèëüçà àëþìèíèåâàÿ GL-70-12 (ÃÀ) EKF', 'Ãèëüçà àëþìèíèåâàÿ GL-70-12 (ÃÀ) EKF', '', ( #297 ) ) ;
#357 = DIRECTION ( 'NONE',  ( 1.000000000000000000, 0.0000000000000000000, 0.0000000000000000000 ) ) ;
#358 = DIRECTION ( 'NONE',  ( 0.0000000000000000000, 0.0000000000000000000, 1.000000000000000000 ) ) ;
#359 = DIRECTION ( 'NONE',  ( -1.000000000000000000, 0.0000000000000000000, 0.0000000000000000000 ) ) ;
#360 = CARTESIAN_POINT ( 'NONE',  ( 8.000000000000000000, 0.0000000000000000000, 78.00000000000000000 ) ) ;
#361 = DIRECTION ( 'NONE',  ( 0.0000000000000000000, -1.000000000000000000, 0.0000000000000000000 ) ) ;
#362 = DIRECTION ( 'NONE',  ( 0.0000000000000000000, 0.0000000000000000000, -1.000000000000000000 ) ) ;
#363 = CARTESIAN_POINT ( 'NONE',  ( 0.0000000000000000000, 0.0000000000000000000, 78.00000000000000000 ) ) ;
#364 = CARTESIAN_POINT ( 'NONE',  ( -6.000000000000000900, 0.0000000000000000000, 80.00000000000000000 ) ) ;
#365 = DIRECTION ( 'NONE',  ( 0.0000000000000000000, 0.0000000000000000000, 1.000000000000000000 ) ) ;
#366 = DIRECTION ( 'NONE',  ( 1.000000000000000000, 0.0000000000000000000, 0.0000000000000000000 ) ) ;
#367 = CARTESIAN_POINT ( 'NONE',  ( -7.099999999999999600, 8.694992273946207700E-016, 78.32667994693184700 ) ) ;
#368 = DIRECTION ( 'NONE',  ( 0.0000000000000000000, -1.000000000000000000, 0.0000000000000000000 ) ) ;
#369 = DIRECTION ( 'NONE',  ( 0.0000000000000000000, 0.0000000000000000000, -1.000000000000000000 ) ) ;
#370 = CARTESIAN_POINT ( 'NONE',  ( 0.0000000000000000000, 0.0000000000000000000, 1.673320053068152900 ) ) ;
#371 = DIRECTION ( 'NONE',  ( -0.0000000000000000000, -0.0000000000000000000, -1.000000000000000000 ) ) ;
#372 = DIRECTION ( 'NONE',  ( 0.0000000000000000000, 0.0000000000000000000, 1.000000000000000000 ) ) ;
#373 = DIRECTION ( 'NONE',  ( -1.000000000000000000, 0.0000000000000000000, 0.0000000000000000000 ) ) ;
#374 = CARTESIAN_POINT ( 'NONE',  ( 7.099999999999999600, 8.694992273946207700E-016, 1.673320053068150900 ) ) ;
#375 = DIRECTION ( 'NONE',  ( -1.224646799147353200E-016, 1.000000000000000000, 0.0000000000000000000 ) ) ;
#376 = CARTESIAN_POINT ( 'NONE',  ( 9.000000000000000000, 1.102182119232617700E-015, 80.00000000000000000 ) ) ;
#377 = VERTEX_POINT ( 'NONE', #271 ) ;
#378 = VERTEX_POINT ( 'NONE', #272 ) ;
#379 = VERTEX_POINT ( 'NONE', #275 ) ;
#380 = VERTEX_POINT ( 'NONE', #276 ) ;
#381 = VERTEX_POINT ( 'NONE', #277 ) ;
#382 = VERTEX_POINT ( 'NONE', #348 ) ;
#383 = VERTEX_POINT ( 'NONE', #266 ) ;
#384 = VERTEX_POINT ( 'NONE', #278 ) ;
#385 = VERTEX_POINT ( 'NONE', #279 ) ;
#386 = VERTEX_POINT ( 'NONE', #280 ) ;
#387 = VERTEX_POINT ( 'NONE', #281 ) ;
#388 = VERTEX_POINT ( 'NONE', #282 ) ;
#389 = DIRECTION ( 'NONE',  ( -0.0000000000000000000, -0.0000000000000000000, -1.000000000000000000 ) ) ;
#390 = DIRECTION ( 'NONE',  ( 1.000000000000000000, 0.0000000000000000000, 0.0000000000000000000 ) ) ;
#391 = CARTESIAN_POINT ( 'NONE',  ( 6.000000000000000900, 7.347880794884120700E-016, 80.00000000000000000 ) ) ;
#392 = CARTESIAN_POINT ( 'NONE',  ( 0.0000000000000000000, 0.0000000000000000000, 1.673320053068152900 ) ) ;
#393 = DIRECTION ( 'NONE',  ( -0.0000000000000000000, -0.0000000000000000000, -1.000000000000000000 ) ) ;
#394 = CARTESIAN_POINT ( 'NONE',  ( -8.000000000000000000, 9.797174393178825700E-016, 2.000000000000001800 ) ) ;
#395 = DIRECTION ( 'NONE',  ( 1.224646799147353200E-016, 1.000000000000000000, -0.0000000000000000000 ) ) ;
#396 = EDGE_CURVE ( 'NONE', #379, #378, #157, .T. ) ;
#397 = EDGE_CURVE ( 'NONE', #380, #381, #158, .T. ) ;
ENDSEC;
END-ISO-10303-21;
