ISO-10303-21;
HEADER;
FILE_DESCRIPTION (( 'STEP AP203' ),
    '1' );
FILE_NAME ('Êðûøêà íà îòâåòâèòåëü Ò-îáðàçíûé âåðòèêàëüíûé áîêîâîé TDS_38323.STEP',
    '2012-11-09T08:44:36',
    ( 'Àñååâ' ),
    ( '' ),
    'SwSTEP 2.0',
    'SolidWorks 2012',
    '' );
FILE_SCHEMA (( 'CONFIG_CONTROL_DESIGN' ));
ENDSEC;

DATA;
#1 = VECTOR ( 'NONE', #433, 1000.000000000000000 ) ;
#2 = LINE ( 'NONE', #296, #124 ) ;
#3 = VECTOR ( 'NONE', #437, 1000.000000000000000 ) ;
#4 = LINE ( 'NONE', #372, #1 ) ;
#5 = VECTOR ( 'NONE', #298, 1000.000000000000000 ) ;
#6 = LINE ( 'NONE', #390, #3 ) ;
#7 = VECTOR ( 'NONE', #334, 1000.000000000000000 ) ;
#8 = LINE ( 'NONE', #379, #122 ) ;
#9 = VECTOR ( 'NONE', #367, 1000.000000000000000 ) ;
#10 = LINE ( 'NONE', #373, #7 ) ;
#11 = LINE ( 'NONE', #430, #15 ) ;
#12 = LINE ( 'NONE', #376, #5 ) ;
#13 = VECTOR ( 'NONE', #311, 1000.000000000000000 ) ;
#14 = VECTOR ( 'NONE', #295, 1000.000000000000000 ) ;
#15 = VECTOR ( 'NONE', #429, 1000.000000000000000 ) ;
#16 = LINE ( 'NONE', #380, #14 ) ;
#17 = VECTOR ( 'NONE', #374, 1000.000000000000000 ) ;
#18 = LINE ( 'NONE', #355, #17 ) ;
#19 = EDGE_LOOP ( 'NONE', ( #69, #63, #68, #40 ) ) ;
#20 = EDGE_LOOP ( 'NONE', ( #56, #57, #54, #55 ) ) ;
#21 = EDGE_LOOP ( 'NONE', ( #89, #64, #96, #71 ) ) ;
#22 = EDGE_LOOP ( 'NONE', ( #91, #90, #93, #92 ) ) ;
#23 = EDGE_LOOP ( 'NONE', ( #75 ) ) ;
#24 = EDGE_LOOP ( 'NONE', ( #52, #53, #50, #51 ) ) ;
#25 = VERTEX_POINT ( 'NONE', #422 ) ;
#26 = EDGE_LOOP ( 'NONE', ( #48 ) ) ;
#27 = EDGE_LOOP ( 'NONE', ( #59, #95, #74, #88 ) ) ;
#28 = EDGE_LOOP ( 'NONE', ( #83, #84, #66, #65 ) ) ;
#29 = EDGE_LOOP ( 'NONE', ( #58 ) ) ;
#30 = EDGE_LOOP ( 'NONE', ( #46, #47, #44, #45 ) ) ;
#31 = EDGE_LOOP ( 'NONE', ( #86, #61, #76, #78, #80, #79, #77, #42 ) ) ;
#32 = CIRCLE ( 'NONE', #153, 2.500000000000002200 ) ;
#33 = EDGE_LOOP ( 'NONE', ( #81 ) ) ;
#34 = EDGE_LOOP ( 'NONE', ( #72 ) ) ;
#35 = LINE ( 'NONE', #333, #218 ) ;
#36 = EDGE_LOOP ( 'NONE', ( #73 ) ) ;
#37 = EDGE_LOOP ( 'NONE', ( #94 ) ) ;
#38 = EDGE_LOOP ( 'NONE', ( #49 ) ) ;
#39 = ORIENTED_EDGE ( 'NONE', *, *, #156, .T. ) ;
#40 = ORIENTED_EDGE ( 'NONE', *, *, #163, .T. ) ;
#41 = ORIENTED_EDGE ( 'NONE', *, *, #180, .F. ) ;
#42 = ORIENTED_EDGE ( 'NONE', *, *, #166, .T. ) ;
#43 = ORIENTED_EDGE ( 'NONE', *, *, #165, .F. ) ;
#44 = ORIENTED_EDGE ( 'NONE', *, *, #161, .F. ) ;
#45 = ORIENTED_EDGE ( 'NONE', *, *, #181, .T. ) ;
#46 = ORIENTED_EDGE ( 'NONE', *, *, #159, .T. ) ;
#47 = ORIENTED_EDGE ( 'NONE', *, *, #155, .F. ) ;
#48 = ORIENTED_EDGE ( 'NONE', *, *, #182, .F. ) ;
#49 = ORIENTED_EDGE ( 'NONE', *, *, #183, .F. ) ;
#50 = ORIENTED_EDGE ( 'NONE', *, *, #160, .F. ) ;
#51 = ORIENTED_EDGE ( 'NONE', *, *, #179, .T. ) ;
#52 = ORIENTED_EDGE ( 'NONE', *, *, #162, .T. ) ;
#53 = ORIENTED_EDGE ( 'NONE', *, *, #181, .F. ) ;
#54 = ORIENTED_EDGE ( 'NONE', *, *, #180, .T. ) ;
#55 = ORIENTED_EDGE ( 'NONE', *, *, #175, .T. ) ;
#56 = ORIENTED_EDGE ( 'NONE', *, *, #178, .F. ) ;
#57 = ORIENTED_EDGE ( 'NONE', *, *, #179, .F. ) ;
#58 = ORIENTED_EDGE ( 'NONE', *, *, #169, .T. ) ;
#59 = ORIENTED_EDGE ( 'NONE', *, *, #157, .T. ) ;
#60 = ORIENTED_EDGE ( 'NONE', *, *, #161, .T. ) ;
#61 = ORIENTED_EDGE ( 'NONE', *, *, #159, .F. ) ;
#62 = ORIENTED_EDGE ( 'NONE', *, *, #160, .T. ) ;
#63 = ORIENTED_EDGE ( 'NONE', *, *, #175, .F. ) ;
#64 = ORIENTED_EDGE ( 'NONE', *, *, #163, .F. ) ;
#65 = ORIENTED_EDGE ( 'NONE', *, *, #168, .T. ) ;
#66 = ORIENTED_EDGE ( 'NONE', *, *, #167, .T. ) ;
#67 = VECTOR ( 'NONE', #306, 1000.000000000000000 ) ;
#68 = ORIENTED_EDGE ( 'NONE', *, *, #177, .T. ) ;
#69 = ORIENTED_EDGE ( 'NONE', *, *, #174, .F. ) ;
#70 = ORIENTED_EDGE ( 'NONE', *, *, #177, .F. ) ;
#71 = ORIENTED_EDGE ( 'NONE', *, *, #164, .T. ) ;
#72 = ORIENTED_EDGE ( 'NONE', *, *, #169, .F. ) ;
#73 = ORIENTED_EDGE ( 'NONE', *, *, #170, .T. ) ;
#74 = ORIENTED_EDGE ( 'NONE', *, *, #156, .F. ) ;
#75 = ORIENTED_EDGE ( 'NONE', *, *, #170, .F. ) ;
#76 = ORIENTED_EDGE ( 'NONE', *, *, #162, .F. ) ;
#77 = ORIENTED_EDGE ( 'NONE', *, *, #173, .T. ) ;
#78 = ORIENTED_EDGE ( 'NONE', *, *, #178, .T. ) ;
#79 = ORIENTED_EDGE ( 'NONE', *, *, #171, .T. ) ;
#80 = ORIENTED_EDGE ( 'NONE', *, *, #174, .T. ) ;
#81 = ORIENTED_EDGE ( 'NONE', *, *, #182, .T. ) ;
#82 = CLOSED_SHELL ( 'NONE', ( #281, #278, #280, #273, #282, #284, #279, #274, #276, #277, #283, #275 ) ) ;
#83 = ORIENTED_EDGE ( 'NONE', *, *, #173, .F. ) ;
#84 = ORIENTED_EDGE ( 'NONE', *, *, #164, .F. ) ;
#85 = ORIENTED_EDGE ( 'NONE', *, *, #172, .F. ) ;
#86 = ORIENTED_EDGE ( 'NONE', *, *, #157, .F. ) ;
#87 = ORIENTED_EDGE ( 'NONE', *, *, #167, .F. ) ;
#88 = ORIENTED_EDGE ( 'NONE', *, *, #155, .T. ) ;
#89 = ORIENTED_EDGE ( 'NONE', *, *, #171, .F. ) ;
#90 = ORIENTED_EDGE ( 'NONE', *, *, #168, .F. ) ;
#91 = ORIENTED_EDGE ( 'NONE', *, *, #166, .F. ) ;
#92 = ORIENTED_EDGE ( 'NONE', *, *, #158, .T. ) ;
#93 = ORIENTED_EDGE ( 'NONE', *, *, #165, .T. ) ;
#94 = ORIENTED_EDGE ( 'NONE', *, *, #183, .T. ) ;
#95 = ORIENTED_EDGE ( 'NONE', *, *, #158, .F. ) ;
#96 = ORIENTED_EDGE ( 'NONE', *, *, #172, .T. ) ;
#97 = VERTEX_POINT ( 'NONE', #386 ) ;
#98 = VERTEX_POINT ( 'NONE', #432 ) ;
#99 = VERTEX_POINT ( 'NONE', #318 ) ;
#100 = VERTEX_POINT ( 'NONE', #315 ) ;
#101 = VERTEX_POINT ( 'NONE', #393 ) ;
#102 = VERTEX_POINT ( 'NONE', #420 ) ;
#103 = VERTEX_POINT ( 'NONE', #323 ) ;
#104 = LINE ( 'NONE', #375, #113 ) ;
#105 = VERTEX_POINT ( 'NONE', #424 ) ;
#106 = VERTEX_POINT ( 'NONE', #341 ) ;
#107 = EDGE_LOOP ( 'NONE', ( #39, #43, #87, #85, #70, #41, #62, #60 ) ) ;
#108 = LINE ( 'NONE', #368, #9 ) ;
#109 = VERTEX_POINT ( 'NONE', #335 ) ;
#110 = VERTEX_POINT ( 'NONE', #330 ) ;
#111 = VERTEX_POINT ( 'NONE', #361 ) ;
#112 = VECTOR ( 'NONE', #305, 1000.000000000000000 ) ;
#113 = VECTOR ( 'NONE', #358, 1000.000000000000000 ) ;
#114 = VERTEX_POINT ( 'NONE', #360 ) ;
#115 = VERTEX_POINT ( 'NONE', #359 ) ;
#116 = LINE ( 'NONE', #435, #118 ) ;
#117 = VERTEX_POINT ( 'NONE', #356 ) ;
#118 = VECTOR ( 'NONE', #328, 1000.000000000000000 ) ;
#119 = LINE ( 'NONE', #303, #67 ) ;
#120 = LINE ( 'NONE', #371, #112 ) ;
#121 = CIRCLE ( 'NONE', #154, 2.500000000000002200 ) ;
#122 = VECTOR ( 'NONE', #434, 1000.000000000000000 ) ;
#123 = VECTOR ( 'NONE', #326, 1000.000000000000000 ) ;
#124 = VECTOR ( 'NONE', #389, 1000.000000000000000 ) ;
#125 = LINE ( 'NONE', #369, #13 ) ;
#126 = LINE ( 'NONE', #312, #123 ) ;
#127 = APPROVAL ( #350, 'UNSPECIFIED' ) ;
#128 = PRODUCT_DEFINITION ( 'UNKNOWN', '', #176, #286 ) ;
#129 = APPROVAL ( #352, 'UNSPECIFIED' ) ;
#130 = CC_DESIGN_PERSON_AND_ORGANIZATION_ASSIGNMENT ( #260, #363, ( #192 ) ) ;
#131 = AXIS2_PLACEMENT_3D ( 'NONE', #300, #304, #408 ) ;
#132 = CC_DESIGN_PERSON_AND_ORGANIZATION_ASSIGNMENT ( #251, #324, ( #128 ) ) ;
#133 = AXIS2_PLACEMENT_3D ( 'NONE', #385, #307, #316 ) ;
#134 = AXIS2_PLACEMENT_3D ( 'NONE', #354, #384, #414 ) ;
#135 = AXIS2_PLACEMENT_3D ( 'NONE', #428, #387, #426 ) ;
#136 =( GEOMETRIC_REPRESENTATION_CONTEXT ( 3 ) GLOBAL_UNCERTAINTY_ASSIGNED_CONTEXT ( ( #272 ) ) GLOBAL_UNIT_ASSIGNED_CONTEXT ( ( #299, #301, #302 ) ) REPRESENTATION_CONTEXT ( 'NONE', 'WORKASPACE' ) );
#137 = SECURITY_CLASSIFICATION ( '', '', #339 ) ;
#138 = AXIS2_PLACEMENT_3D ( 'NONE', #412, #436, #427 ) ;
#139 = AXIS2_PLACEMENT_3D ( 'NONE', #402, #417, #344 ) ;
#140 = AXIS2_PLACEMENT_3D ( 'NONE', #396, #416, #407 ) ;
#141 = CC_DESIGN_PERSON_AND_ORGANIZATION_ASSIGNMENT ( #236, #310, ( #176 ) ) ;
#142 = AXIS2_PLACEMENT_3D ( 'NONE', #331, #401, #423 ) ;
#143 = CC_DESIGN_PERSON_AND_ORGANIZATION_ASSIGNMENT ( #235, #297, ( #176 ) ) ;
#144 = CC_DESIGN_APPROVAL ( #129, ( #176 ) ) ;
#145 = CC_DESIGN_DATE_AND_TIME_ASSIGNMENT ( #246, #377, ( #128 ) ) ;
#146 = AXIS2_PLACEMENT_3D ( 'NONE', #329, #397, #398 ) ;
#147 = AXIS2_PLACEMENT_3D ( 'NONE', #321, #336, #338 ) ;
#148 = AXIS2_PLACEMENT_3D ( 'NONE', #322, #337, #308 ) ;
#149 = AXIS2_PLACEMENT_3D ( 'NONE', #345, #421, #319 ) ;
#150 = AXIS2_PLACEMENT_3D ( 'NONE', #362, #347, #346 ) ;
#151 = AXIS2_PLACEMENT_3D ( 'NONE', #370, #320, #348 ) ;
#152 = AXIS2_PLACEMENT_3D ( 'NONE', #364, #325, #357 ) ;
#153 = AXIS2_PLACEMENT_3D ( 'NONE', #317, #413, #431 ) ;
#154 = AXIS2_PLACEMENT_3D ( 'NONE', #287, #293, #411 ) ;
#155 = EDGE_CURVE ( 'NONE', #25, #111, #108, .T. ) ;
#156 = EDGE_CURVE ( 'NONE', #25, #109, #11, .T. ) ;
#157 = EDGE_CURVE ( 'NONE', #111, #114, #18, .T. ) ;
#158 = EDGE_CURVE ( 'NONE', #109, #114, #16, .T. ) ;
#159 = EDGE_CURVE ( 'NONE', #101, #111, #10, .T. ) ;
#160 = EDGE_CURVE ( 'NONE', #103, #106, #12, .T. ) ;
#161 = EDGE_CURVE ( 'NONE', #106, #25, #6, .T. ) ;
#162 = EDGE_CURVE ( 'NONE', #99, #101, #4, .T. ) ;
#163 = EDGE_CURVE ( 'NONE', #97, #100, #8, .T. ) ;
#164 = EDGE_CURVE ( 'NONE', #102, #110, #2, .T. ) ;
#165 = EDGE_CURVE ( 'NONE', #115, #109, #104, .T. ) ;
#166 = EDGE_CURVE ( 'NONE', #98, #114, #119, .T. ) ;
#167 = EDGE_CURVE ( 'NONE', #102, #115, #120, .T. ) ;
#168 = EDGE_CURVE ( 'NONE', #115, #98, #125, .T. ) ;
#169 = EDGE_CURVE ( 'NONE', #268, #268, #121, .T. ) ;
#170 = EDGE_CURVE ( 'NONE', #263, #263, #32, .T. ) ;
#171 = EDGE_CURVE ( 'NONE', #100, #110, #126, .T. ) ;
#172 = EDGE_CURVE ( 'NONE', #97, #102, #116, .T. ) ;
#173 = EDGE_CURVE ( 'NONE', #110, #98, #35, .T. ) ;
#174 = EDGE_CURVE ( 'NONE', #117, #100, #209, .T. ) ;
#175 = EDGE_CURVE ( 'NONE', #105, #117, #269, .T. ) ;
#176 = PRODUCT_DEFINITION_FORMATION_WITH_SPECIFIED_SOURCE ( 'ANY', '', #192, .NOT_KNOWN. ) ;
#177 = EDGE_CURVE ( 'NONE', #105, #97, #215, .T. ) ;
#178 = EDGE_CURVE ( 'NONE', #99, #117, #197, .T. ) ;
#179 = EDGE_CURVE ( 'NONE', #103, #99, #193, .T. ) ;
#180 = EDGE_CURVE ( 'NONE', #103, #105, #214, .T. ) ;
#181 = EDGE_CURVE ( 'NONE', #106, #101, #196, .T. ) ;
#182 = EDGE_CURVE ( 'NONE', #261, #261, #205, .T. ) ;
#183 = EDGE_CURVE ( 'NONE', #262, #262, #206, .T. ) ;
#184 = PRODUCT_RELATED_PRODUCT_CATEGORY ( 'detail', '', ( #192 ) ) ;
#185 = CC_DESIGN_APPROVAL ( #187, ( #137 ) ) ;
#186 = CC_DESIGN_SECURITY_CLASSIFICATION ( #137, ( #176 ) ) ;
#187 = APPROVAL ( #343, 'UNSPECIFIED' ) ;
#188 = CC_DESIGN_PERSON_AND_ORGANIZATION_ASSIGNMENT ( #237, #340, ( #137 ) ) ;
#189 = CC_DESIGN_APPROVAL ( #127, ( #128 ) ) ;
#190 = CC_DESIGN_DATE_AND_TIME_ASSIGNMENT ( #231, #342, ( #137 ) ) ;
#191 = PERSON ( 'UNSPECIFIED', 'UNSPECIFIED', 'UNSPECIFIED', ('UNSPECIFIED'), ('UNSPECIFIED'), ('UNSPECIFIED') ) ;
#192 = PRODUCT ( 'Êðûøêà íà îòâåòâèòåëü Ò-îáðàçíûé âåðòèêàëüíûé áîêîâîé TDS_38323', 'Êðûøêà íà îòâåòâèòåëü Ò-îáðàçíûé âåðòèêàëüíûé áîêîâîé TDS_38323', '', ( #403 ) ) ;
#193 = LINE ( 'NONE', #415, #195 ) ;
#194 = VECTOR ( 'NONE', #409, 1000.000000000000000 ) ;
#195 = VECTOR ( 'NONE', #425, 1000.000000000000000 ) ;
#196 = LINE ( 'NONE', #381, #222 ) ;
#197 = LINE ( 'NONE', #353, #194 ) ;
#198 = VECTOR ( 'NONE', #291, 1000.000000000000000 ) ;
#199 = VECTOR ( 'NONE', #289, 1000.000000000000000 ) ;
#200 = VECTOR ( 'NONE', #366, 1000.000000000000000 ) ;
#201 = PERSON_AND_ORGANIZATION ( #191, #259 ) ;
#202 = FACE_OUTER_BOUND ( 'NONE', #22, .T. ) ;
#203 = FACE_OUTER_BOUND ( 'NONE', #19, .T. ) ;
#204 = FACE_OUTER_BOUND ( 'NONE', #37, .T. ) ;
#205 = CIRCLE ( 'NONE', #152, 2.500000000000002200 ) ;
#206 = CIRCLE ( 'NONE', #151, 2.500000000000002200 ) ;
#207 = FACE_OUTER_BOUND ( 'NONE', #30, .T. ) ;
#208 = FACE_OUTER_BOUND ( 'NONE', #31, .T. ) ;
#209 = LINE ( 'NONE', #392, #199 ) ;
#210 = FACE_BOUND ( 'NONE', #34, .T. ) ;
#211 = VECTOR ( 'NONE', #290, 1000.000000000000000 ) ;
#212 = FACE_OUTER_BOUND ( 'NONE', #21, .T. ) ;
#213 = FACE_BOUND ( 'NONE', #23, .T. ) ;
#214 = LINE ( 'NONE', #382, #200 ) ;
#215 = LINE ( 'NONE', #309, #211 ) ;
#216 = FACE_OUTER_BOUND ( 'NONE', #29, .T. ) ;
#217 = CYLINDRICAL_SURFACE ( 'NONE', #148, 2.500000000000002200 ) ;
#218 = VECTOR ( 'NONE', #399, 1000.000000000000000 ) ;
#219 = FACE_OUTER_BOUND ( 'NONE', #20, .T. ) ;
#220 = SHAPE_DEFINITION_REPRESENTATION ( #285, #270 ) ;
#221 = FACE_BOUND ( 'NONE', #26, .T. ) ;
#222 = VECTOR ( 'NONE', #365, 1000.000000000000000 ) ;
#223 = COORDINATED_UNIVERSAL_TIME_OFFSET ( 4, 0, .AHEAD. ) ;
#224 = LOCAL_TIME ( 12, 44, 36.00000000000000000, #223 ) ;
#225 = CALENDAR_DATE ( 2012, 9, 11 ) ;
#226 = FACE_OUTER_BOUND ( 'NONE', #24, .T. ) ;
#227 = DATE_AND_TIME ( #225, #224 ) ;
#228 = APPROVAL_DATE_TIME ( #227, #187 ) ;
#229 = LOCAL_TIME ( 12, 44, 36.00000000000000000, #238 ) ;
#230 = CALENDAR_DATE ( 2012, 9, 11 ) ;
#231 = DATE_AND_TIME ( #230, #229 ) ;
#232 = PERSON_AND_ORGANIZATION ( #191, #259 ) ;
#233 = APPROVAL_PERSON_ORGANIZATION ( #232, #187, #404 ) ;
#234 = APPROVAL_DATE_TIME ( #239, #129 ) ;
#235 = PERSON_AND_ORGANIZATION ( #191, #259 ) ;
#236 = PERSON_AND_ORGANIZATION ( #191, #259 ) ;
#237 = PERSON_AND_ORGANIZATION ( #191, #259 ) ;
#238 = COORDINATED_UNIVERSAL_TIME_OFFSET ( 4, 0, .AHEAD. ) ;
#239 = DATE_AND_TIME ( #241, #242 ) ;
#240 = FACE_OUTER_BOUND ( 'NONE', #33, .T. ) ;
#241 = CALENDAR_DATE ( 2012, 9, 11 ) ;
#242 = LOCAL_TIME ( 12, 44, 36.00000000000000000, #243 ) ;
#243 = COORDINATED_UNIVERSAL_TIME_OFFSET ( 4, 0, .AHEAD. ) ;
#244 = APPROVAL_PERSON_ORGANIZATION ( #245, #129, #388 ) ;
#245 = PERSON_AND_ORGANIZATION ( #191, #259 ) ;
#246 = DATE_AND_TIME ( #247, #248 ) ;
#247 = CALENDAR_DATE ( 2012, 9, 11 ) ;
#248 = LOCAL_TIME ( 12, 44, 36.00000000000000000, #250 ) ;
#249 = FACE_BOUND ( 'NONE', #38, .T. ) ;
#250 = COORDINATED_UNIVERSAL_TIME_OFFSET ( 4, 0, .AHEAD. ) ;
#251 = PERSON_AND_ORGANIZATION ( #191, #259 ) ;
#252 = FACE_OUTER_BOUND ( 'NONE', #107, .T. ) ;
#253 = APPROVAL_DATE_TIME ( #254, #127 ) ;
#254 = DATE_AND_TIME ( #255, #256 ) ;
#255 = CALENDAR_DATE ( 2012, 9, 11 ) ;
#256 = LOCAL_TIME ( 12, 44, 36.00000000000000000, #257 ) ;
#257 = COORDINATED_UNIVERSAL_TIME_OFFSET ( 4, 0, .AHEAD. ) ;
#258 = APPROVAL_PERSON_ORGANIZATION ( #201, #127, #378 ) ;
#259 = ORGANIZATION ( 'UNSPECIFIED', 'UNSPECIFIED', '' ) ;
#260 = PERSON_AND_ORGANIZATION ( #191, #259 ) ;
#261 = VERTEX_POINT ( 'NONE', #294 ) ;
#262 = VERTEX_POINT ( 'NONE', #314 ) ;
#263 = VERTEX_POINT ( 'NONE', #349 ) ;
#264 = CYLINDRICAL_SURFACE ( 'NONE', #134, 2.500000000000002200 ) ;
#265 = FACE_OUTER_BOUND ( 'NONE', #27, .T. ) ;
#266 = FACE_OUTER_BOUND ( 'NONE', #28, .T. ) ;
#267 = FACE_OUTER_BOUND ( 'NONE', #36, .T. ) ;
#268 = VERTEX_POINT ( 'NONE', #313 ) ;
#269 = LINE ( 'NONE', #288, #198 ) ;
#270 = ADVANCED_BREP_SHAPE_REPRESENTATION ( '¦¨v°úð ýð þªòõªòøªõû¹ T-þñ¨ð÷ývù òõ¨ªøúðû¹ývù ñþúþòþù TDS_38323', ( #271, #131 ), #136 ) ;
#271 = MANIFOLD_SOLID_BREP ( 'Âûðåç-Âûòÿíóòü1', #82 ) ;
#272 = UNCERTAINTY_MEASURE_WITH_UNIT (LENGTH_MEASURE( 1.000000000000000100E-005 ), #299, 'distance_accuracy_value', 'NONE');
#273 = ADVANCED_FACE ( 'NONE', ( #210, #213, #212 ), #292, .T. ) ;
#274 = ADVANCED_FACE ( 'NONE', ( #221, #249, #207 ), #332, .F. ) ;
#275 = ADVANCED_FACE ( 'NONE', ( #216, #240 ), #217, .F. ) ;
#276 = ADVANCED_FACE ( 'NONE', ( #252 ), #327, .F. ) ;
#277 = ADVANCED_FACE ( 'NONE', ( #208 ), #395, .T. ) ;
#278 = ADVANCED_FACE ( 'NONE', ( #202 ), #400, .T. ) ;
#279 = ADVANCED_FACE ( 'NONE', ( #226 ), #419, .F. ) ;
#280 = ADVANCED_FACE ( 'NONE', ( #266 ), #394, .T. ) ;
#281 = ADVANCED_FACE ( 'NONE', ( #265 ), #410, .F. ) ;
#282 = ADVANCED_FACE ( 'NONE', ( #203 ), #391, .T. ) ;
#283 = ADVANCED_FACE ( 'NONE', ( #267, #204 ), #264, .F. ) ;
#284 = ADVANCED_FACE ( 'NONE', ( #219 ), #406, .T. ) ;
#285 = PRODUCT_DEFINITION_SHAPE ( 'NONE', 'NONE',  #128 ) ;
#286 = DESIGN_CONTEXT ( 'detailed design', #383, 'design' ) ;
#287 = CARTESIAN_POINT ( 'NONE',  ( -8.162383766162926900E-016, 0.8000000000000000400, 395.0000000000000000 ) ) ;
#288 = CARTESIAN_POINT ( 'NONE',  ( -76.79999999999999700, -14.00000000000000000, 410.0000000000000000 ) ) ;
#289 = DIRECTION ( 'NONE',  ( 0.0000000000000000000, 1.000000000000000000, 0.0000000000000000000 ) ) ;
#290 = DIRECTION ( 'NONE',  ( 0.0000000000000000000, 1.000000000000000000, 0.0000000000000000000 ) ) ;
#291 = DIRECTION ( 'NONE',  ( -0.0000000000000000000, -0.0000000000000000000, -1.000000000000000000 ) ) ;
#292 = PLANE ( 'NONE',  #150 ) ;
#293 = DIRECTION ( 'NONE',  ( -0.0000000000000000000, 1.000000000000000000, -0.0000000000000000000 ) ) ;
#294 = CARTESIAN_POINT ( 'NONE',  ( -8.162383766162926900E-016, 0.0000000000000000000, 397.5000000000000000 ) ) ;
#295 = DIRECTION ( 'NONE',  ( -0.0000000000000000000, -0.0000000000000000000, -1.000000000000000000 ) ) ;
#296 = CARTESIAN_POINT ( 'NONE',  ( 76.79999999999999700, 0.8000000000000000400, 410.0000000000000000 ) ) ;
#297 = PERSON_AND_ORGANIZATION_ROLE ( 'creator' ) ;
#298 = DIRECTION ( 'NONE',  ( -0.0000000000000000000, 1.000000000000000000, -0.0000000000000000000 ) ) ;
#299 =( LENGTH_UNIT ( ) NAMED_UNIT ( * ) SI_UNIT ( .MILLI., .METRE. ) );
#300 = CARTESIAN_POINT ( 'NONE',  ( 0.0000000000000000000, 0.0000000000000000000, 0.0000000000000000000 ) ) ;
#301 =( NAMED_UNIT ( * ) PLANE_ANGLE_UNIT ( ) SI_UNIT ( $, .RADIAN. ) );
#302 =( NAMED_UNIT ( * ) SI_UNIT ( $, .STERADIAN. ) SOLID_ANGLE_UNIT ( ) );
#303 = CARTESIAN_POINT ( 'NONE',  ( 76.79999999999999700, -14.00000000000000000, 0.0000000000000000000 ) ) ;
#304 = DIRECTION ( 'NONE',  ( 0.0000000000000000000, 0.0000000000000000000, 1.000000000000000000 ) ) ;
#305 = DIRECTION ( 'NONE',  ( -0.0000000000000000000, -1.000000000000000000, 0.0000000000000000000 ) ) ;
#306 = DIRECTION ( 'NONE',  ( -1.000000000000000000, 0.0000000000000000000, 0.0000000000000000000 ) ) ;
#307 = DIRECTION ( 'NONE',  ( 0.0000000000000000000, -1.000000000000000000, 0.0000000000000000000 ) ) ;
#308 = DIRECTION ( 'NONE',  ( 0.0000000000000000000, 0.0000000000000000000, 1.000000000000000000 ) ) ;
#309 = CARTESIAN_POINT ( 'NONE',  ( -76.79999999999999700, 0.0000000000000000000, 410.0000000000000000 ) ) ;
#310 = PERSON_AND_ORGANIZATION_ROLE ( 'design_supplier' ) ;
#311 = DIRECTION ( 'NONE',  ( -0.0000000000000000000, -0.0000000000000000000, -1.000000000000000000 ) ) ;
#312 = CARTESIAN_POINT ( 'NONE',  ( -76.00000000000000000, 0.8000000000000000400, 0.0000000000000000000 ) ) ;
#313 = CARTESIAN_POINT ( 'NONE',  ( -8.162383766162926900E-016, 0.8000000000000000400, 392.5000000000000000 ) ) ;
#314 = CARTESIAN_POINT ( 'NONE',  ( 1.734723475976807100E-015, 0.0000000000000000000, 17.49999999999999600 ) ) ;
#315 = CARTESIAN_POINT ( 'NONE',  ( -76.79999999999999700, 0.8000000000000000400, 0.0000000000000000000 ) ) ;
#316 = DIRECTION ( 'NONE',  ( 0.0000000000000000000, -0.0000000000000000000, -1.000000000000000000 ) ) ;
#317 = CARTESIAN_POINT ( 'NONE',  ( 1.734723475976807100E-015, 0.8000000000000000400, 14.99999999999999300 ) ) ;
#318 = CARTESIAN_POINT ( 'NONE',  ( -76.00000000000000000, -14.00000000000000000, 0.0000000000000000000 ) ) ;
#319 = DIRECTION ( 'NONE',  ( 0.0000000000000000000, -0.0000000000000000000, 1.000000000000000000 ) ) ;
#320 = DIRECTION ( 'NONE',  ( -0.0000000000000000000, -1.000000000000000000, -0.0000000000000000000 ) ) ;
#321 = CARTESIAN_POINT ( 'NONE',  ( 0.0000000000000000000, 0.0000000000000000000, 410.0000000000000000 ) ) ;
#322 = CARTESIAN_POINT ( 'NONE',  ( -8.162383766162926900E-016, -14.00099999999999900, 395.0000000000000000 ) ) ;
#323 = CARTESIAN_POINT ( 'NONE',  ( -76.00000000000000000, -14.00000000000000000, 410.0000000000000000 ) ) ;
#324 = PERSON_AND_ORGANIZATION_ROLE ( 'creator' ) ;
#325 = DIRECTION ( 'NONE',  ( -0.0000000000000000000, -1.000000000000000000, -0.0000000000000000000 ) ) ;
#326 = DIRECTION ( 'NONE',  ( 1.000000000000000000, 0.0000000000000000000, 0.0000000000000000000 ) ) ;
#327 = PLANE ( 'NONE',  #147 ) ;
#328 = DIRECTION ( 'NONE',  ( 1.000000000000000000, 0.0000000000000000000, 0.0000000000000000000 ) ) ;
#329 = CARTESIAN_POINT ( 'NONE',  ( 0.0000000000000000000, 0.0000000000000000000, 0.0000000000000000000 ) ) ;
#330 = CARTESIAN_POINT ( 'NONE',  ( 76.79999999999999700, 0.8000000000000000400, 0.0000000000000000000 ) ) ;
#331 = CARTESIAN_POINT ( 'NONE',  ( 76.79999999999999700, -14.00000000000000000, 410.0000000000000000 ) ) ;
#332 = PLANE ( 'NONE',  #149 ) ;
#333 = CARTESIAN_POINT ( 'NONE',  ( 76.79999999999999700, 0.0000000000000000000, 0.0000000000000000000 ) ) ;
#334 = DIRECTION ( 'NONE',  ( 1.000000000000000000, 0.0000000000000000000, 0.0000000000000000000 ) ) ;
#335 = CARTESIAN_POINT ( 'NONE',  ( 76.00000000000000000, -14.00000000000000000, 410.0000000000000000 ) ) ;
#336 = DIRECTION ( 'NONE',  ( -0.0000000000000000000, 0.0000000000000000000, -1.000000000000000000 ) ) ;
#337 = DIRECTION ( 'NONE',  ( -0.0000000000000000000, 1.000000000000000000, -0.0000000000000000000 ) ) ;
#338 = DIRECTION ( 'NONE',  ( -1.000000000000000000, 0.0000000000000000000, 0.0000000000000000000 ) ) ;
#339 = SECURITY_CLASSIFICATION_LEVEL ( 'unclassified' ) ;
#340 = PERSON_AND_ORGANIZATION_ROLE ( 'classification_officer' ) ;
#341 = CARTESIAN_POINT ( 'NONE',  ( -76.00000000000000000, 0.0000000000000000000, 410.0000000000000000 ) ) ;
#342 = DATE_TIME_ROLE ( 'classification_date' ) ;
#343 = APPROVAL_STATUS ( 'not_yet_approved' ) ;
#344 = DIRECTION ( 'NONE',  ( -0.0000000000000000000, 0.0000000000000000000, -1.000000000000000000 ) ) ;
#345 = CARTESIAN_POINT ( 'NONE',  ( -76.00000000000000000, 0.0000000000000000000, 410.0000000000000000 ) ) ;
#346 = DIRECTION ( 'NONE',  ( 0.0000000000000000000, -0.0000000000000000000, 1.000000000000000000 ) ) ;
#347 = DIRECTION ( 'NONE',  ( 0.0000000000000000000, 1.000000000000000000, 0.0000000000000000000 ) ) ;
#348 = DIRECTION ( 'NONE',  ( 0.0000000000000000000, 0.0000000000000000000, 1.000000000000000000 ) ) ;
#349 = CARTESIAN_POINT ( 'NONE',  ( 1.734723475976807100E-015, 0.8000000000000000400, 17.49999999999999600 ) ) ;
#350 = APPROVAL_STATUS ( 'not_yet_approved' ) ;
#351 = APPLICATION_PROTOCOL_DEFINITION ( 'international standard', 'config_control_design', 1994, #383 ) ;
#352 = APPROVAL_STATUS ( 'not_yet_approved' ) ;
#353 = CARTESIAN_POINT ( 'NONE',  ( -76.00000000000000000, -14.00000000000000000, 0.0000000000000000000 ) ) ;
#354 = CARTESIAN_POINT ( 'NONE',  ( 1.734723475976807100E-015, -14.00099999999999900, 14.99999999999999300 ) ) ;
#355 = CARTESIAN_POINT ( 'NONE',  ( 76.00000000000000000, 0.0000000000000000000, 0.0000000000000000000 ) ) ;
#356 = CARTESIAN_POINT ( 'NONE',  ( -76.79999999999999700, -14.00000000000000000, 0.0000000000000000000 ) ) ;
#357 = DIRECTION ( 'NONE',  ( 0.0000000000000000000, 0.0000000000000000000, 1.000000000000000000 ) ) ;
#358 = DIRECTION ( 'NONE',  ( -1.000000000000000000, 0.0000000000000000000, 0.0000000000000000000 ) ) ;
#359 = CARTESIAN_POINT ( 'NONE',  ( 76.79999999999999700, -14.00000000000000000, 410.0000000000000000 ) ) ;
#360 = CARTESIAN_POINT ( 'NONE',  ( 76.00000000000000000, -14.00000000000000000, 0.0000000000000000000 ) ) ;
#361 = CARTESIAN_POINT ( 'NONE',  ( 76.00000000000000000, 0.0000000000000000000, 0.0000000000000000000 ) ) ;
#362 = CARTESIAN_POINT ( 'NONE',  ( -76.00000000000000000, 0.8000000000000000400, 410.0000000000000000 ) ) ;
#363 = PERSON_AND_ORGANIZATION_ROLE ( 'design_owner' ) ;
#364 = CARTESIAN_POINT ( 'NONE',  ( -8.162383766162926900E-016, 0.0000000000000000000, 395.0000000000000000 ) ) ;
#365 = DIRECTION ( 'NONE',  ( -0.0000000000000000000, -0.0000000000000000000, -1.000000000000000000 ) ) ;
#366 = DIRECTION ( 'NONE',  ( -1.000000000000000000, 0.0000000000000000000, 0.0000000000000000000 ) ) ;
#367 = DIRECTION ( 'NONE',  ( -0.0000000000000000000, -0.0000000000000000000, -1.000000000000000000 ) ) ;
#368 = CARTESIAN_POINT ( 'NONE',  ( 76.00000000000000000, 0.0000000000000000000, 410.0000000000000000 ) ) ;
#369 = CARTESIAN_POINT ( 'NONE',  ( 76.79999999999999700, -14.00000000000000000, 410.0000000000000000 ) ) ;
#370 = CARTESIAN_POINT ( 'NONE',  ( 1.734723475976807100E-015, 0.0000000000000000000, 14.99999999999999300 ) ) ;
#371 = CARTESIAN_POINT ( 'NONE',  ( 76.79999999999999700, 0.0000000000000000000, 410.0000000000000000 ) ) ;
#372 = CARTESIAN_POINT ( 'NONE',  ( -76.00000000000000000, 0.0000000000000000000, 0.0000000000000000000 ) ) ;
#373 = CARTESIAN_POINT ( 'NONE',  ( -76.00000000000000000, 0.0000000000000000000, 0.0000000000000000000 ) ) ;
#374 = DIRECTION ( 'NONE',  ( 0.0000000000000000000, -1.000000000000000000, 0.0000000000000000000 ) ) ;
#375 = CARTESIAN_POINT ( 'NONE',  ( 76.79999999999999700, -14.00000000000000000, 410.0000000000000000 ) ) ;
#376 = CARTESIAN_POINT ( 'NONE',  ( -76.00000000000000000, 0.0000000000000000000, 410.0000000000000000 ) ) ;
#377 = DATE_TIME_ROLE ( 'creation_date' ) ;
#378 = APPROVAL_ROLE ( '' ) ;
#379 = CARTESIAN_POINT ( 'NONE',  ( -76.79999999999999700, 0.8000000000000000400, 410.0000000000000000 ) ) ;
#380 = CARTESIAN_POINT ( 'NONE',  ( 76.00000000000000000, -14.00000000000000000, 410.0000000000000000 ) ) ;
#381 = CARTESIAN_POINT ( 'NONE',  ( -76.00000000000000000, 0.0000000000000000000, 410.0000000000000000 ) ) ;
#382 = CARTESIAN_POINT ( 'NONE',  ( -76.00000000000000000, -14.00000000000000000, 410.0000000000000000 ) ) ;
#383 = APPLICATION_CONTEXT ( 'configuration controlled 3d designs of mechanical parts and assemblies' ) ;
#384 = DIRECTION ( 'NONE',  ( -0.0000000000000000000, 1.000000000000000000, -0.0000000000000000000 ) ) ;
#385 = CARTESIAN_POINT ( 'NONE',  ( -76.00000000000000000, -14.00000000000000000, 410.0000000000000000 ) ) ;
#386 = CARTESIAN_POINT ( 'NONE',  ( -76.79999999999999700, 0.8000000000000000400, 410.0000000000000000 ) ) ;
#387 = DIRECTION ( 'NONE',  ( -1.000000000000000000, 0.0000000000000000000, 0.0000000000000000000 ) ) ;
#388 = APPROVAL_ROLE ( '' ) ;
#389 = DIRECTION ( 'NONE',  ( -0.0000000000000000000, -0.0000000000000000000, -1.000000000000000000 ) ) ;
#390 = CARTESIAN_POINT ( 'NONE',  ( -76.00000000000000000, 0.0000000000000000000, 410.0000000000000000 ) ) ;
#391 = PLANE ( 'NONE',  #135 ) ;
#392 = CARTESIAN_POINT ( 'NONE',  ( -76.79999999999999700, 0.0000000000000000000, 0.0000000000000000000 ) ) ;
#393 = CARTESIAN_POINT ( 'NONE',  ( -76.00000000000000000, 0.0000000000000000000, 0.0000000000000000000 ) ) ;
#394 = PLANE ( 'NONE',  #139 ) ;
#395 = PLANE ( 'NONE',  #146 ) ;
#396 = CARTESIAN_POINT ( 'NONE',  ( -76.00000000000000000, 0.0000000000000000000, 410.0000000000000000 ) ) ;
#397 = DIRECTION ( 'NONE',  ( -0.0000000000000000000, 0.0000000000000000000, -1.000000000000000000 ) ) ;
#398 = DIRECTION ( 'NONE',  ( -1.000000000000000000, 0.0000000000000000000, 0.0000000000000000000 ) ) ;
#399 = DIRECTION ( 'NONE',  ( -0.0000000000000000000, -1.000000000000000000, 0.0000000000000000000 ) ) ;
#400 = PLANE ( 'NONE',  #142 ) ;
#401 = DIRECTION ( 'NONE',  ( 0.0000000000000000000, -1.000000000000000000, 0.0000000000000000000 ) ) ;
#402 = CARTESIAN_POINT ( 'NONE',  ( 76.79999999999999700, 0.0000000000000000000, 410.0000000000000000 ) ) ;
#403 = MECHANICAL_CONTEXT ( 'NONE', #405, 'mechanical' ) ;
#404 = APPROVAL_ROLE ( '' ) ;
#405 = APPLICATION_CONTEXT ( 'configuration controlled 3d designs of mechanical parts and assemblies' ) ;
#406 = PLANE ( 'NONE',  #133 ) ;
#407 = DIRECTION ( 'NONE',  ( 0.0000000000000000000, 0.0000000000000000000, 1.000000000000000000 ) ) ;
#408 = DIRECTION ( 'NONE',  ( 1.000000000000000000, 0.0000000000000000000, 0.0000000000000000000 ) ) ;
#409 = DIRECTION ( 'NONE',  ( -1.000000000000000000, 0.0000000000000000000, 0.0000000000000000000 ) ) ;
#410 = PLANE ( 'NONE',  #138 ) ;
#411 = DIRECTION ( 'NONE',  ( 0.0000000000000000000, 0.0000000000000000000, -1.000000000000000000 ) ) ;
#412 = CARTESIAN_POINT ( 'NONE',  ( 76.00000000000000000, 0.0000000000000000000, 410.0000000000000000 ) ) ;
#413 = DIRECTION ( 'NONE',  ( 0.0000000000000000000, 1.000000000000000000, 0.0000000000000000000 ) ) ;
#414 = DIRECTION ( 'NONE',  ( 0.0000000000000000000, 0.0000000000000000000, 1.000000000000000000 ) ) ;
#415 = CARTESIAN_POINT ( 'NONE',  ( -76.00000000000000000, -14.00000000000000000, 410.0000000000000000 ) ) ;
#416 = DIRECTION ( 'NONE',  ( -1.000000000000000000, 0.0000000000000000000, 0.0000000000000000000 ) ) ;
#417 = DIRECTION ( 'NONE',  ( 1.000000000000000000, 0.0000000000000000000, -0.0000000000000000000 ) ) ;
#418 = APPLICATION_PROTOCOL_DEFINITION ( 'international standard', 'config_control_design', 1994, #405 ) ;
#419 = PLANE ( 'NONE',  #140 ) ;
#420 = CARTESIAN_POINT ( 'NONE',  ( 76.79999999999999700, 0.8000000000000000400, 410.0000000000000000 ) ) ;
#421 = DIRECTION ( 'NONE',  ( 0.0000000000000000000, 1.000000000000000000, 0.0000000000000000000 ) ) ;
#422 = CARTESIAN_POINT ( 'NONE',  ( 76.00000000000000000, 0.0000000000000000000, 410.0000000000000000 ) ) ;
#423 = DIRECTION ( 'NONE',  ( 0.0000000000000000000, -0.0000000000000000000, -1.000000000000000000 ) ) ;
#424 = CARTESIAN_POINT ( 'NONE',  ( -76.79999999999999700, -14.00000000000000000, 410.0000000000000000 ) ) ;
#425 = DIRECTION ( 'NONE',  ( -0.0000000000000000000, -0.0000000000000000000, -1.000000000000000000 ) ) ;
#426 = DIRECTION ( 'NONE',  ( 0.0000000000000000000, 0.0000000000000000000, 1.000000000000000000 ) ) ;
#427 = DIRECTION ( 'NONE',  ( -0.0000000000000000000, 0.0000000000000000000, -1.000000000000000000 ) ) ;
#428 = CARTESIAN_POINT ( 'NONE',  ( -76.79999999999999700, 0.0000000000000000000, 410.0000000000000000 ) ) ;
#429 = DIRECTION ( 'NONE',  ( 0.0000000000000000000, -1.000000000000000000, 0.0000000000000000000 ) ) ;
#430 = CARTESIAN_POINT ( 'NONE',  ( 76.00000000000000000, 0.0000000000000000000, 410.0000000000000000 ) ) ;
#431 = DIRECTION ( 'NONE',  ( 0.0000000000000000000, 0.0000000000000000000, 1.000000000000000000 ) ) ;
#432 = CARTESIAN_POINT ( 'NONE',  ( 76.79999999999999700, -14.00000000000000000, 0.0000000000000000000 ) ) ;
#433 = DIRECTION ( 'NONE',  ( -0.0000000000000000000, 1.000000000000000000, -0.0000000000000000000 ) ) ;
#434 = DIRECTION ( 'NONE',  ( -0.0000000000000000000, -0.0000000000000000000, -1.000000000000000000 ) ) ;
#435 = CARTESIAN_POINT ( 'NONE',  ( -76.00000000000000000, 0.8000000000000000400, 410.0000000000000000 ) ) ;
#436 = DIRECTION ( 'NONE',  ( 1.000000000000000000, 0.0000000000000000000, -0.0000000000000000000 ) ) ;
#437 = DIRECTION ( 'NONE',  ( 1.000000000000000000, 0.0000000000000000000, 0.0000000000000000000 ) ) ;
ENDSEC;
END-ISO-10303-21;
