ISO-10303-21;
HEADER;
FILE_DESCRIPTION (( 'STEP AP203' ),
    '1' );
FILE_NAME ('Ïëàñòèíà ñîåäèíèòåëüíàÿ ñ 4 îòâ._BMD1012HDZ.STEP',
    '2012-11-16T13:57:10',
    ( 'Àñååâ' ),
    ( '' ),
    'SwSTEP 2.0',
    'SolidWorks 2012',
    '' );
FILE_SCHEMA (( 'CONFIG_CONTROL_DESIGN' ));
ENDSEC;

DATA;
#1 = ORGANIZATION ( 'UNSPECIFIED', 'UNSPECIFIED', '' ) ;
#2 = PERSON_AND_ORGANIZATION ( #221, #1 ) ;
#3 = PERSON_AND_ORGANIZATION ( #221, #1 ) ;
#4 = APPROVAL_PERSON_ORGANIZATION ( #3, #320, #80 ) ;
#5 = COORDINATED_UNIVERSAL_TIME_OFFSET ( 4, 0, .AHEAD. ) ;
#6 = LOCAL_TIME ( 17, 57, 10.00000000000000000, #5 ) ;
#7 = CALENDAR_DATE ( 2012, 16, 11 ) ;
#8 = DATE_AND_TIME ( #7, #6 ) ;
#9 = APPROVAL_DATE_TIME ( #8, #320 ) ;
#10 = PERSON_AND_ORGANIZATION ( #221, #1 ) ;
#11 = COORDINATED_UNIVERSAL_TIME_OFFSET ( 4, 0, .AHEAD. ) ;
#12 = LOCAL_TIME ( 17, 57, 10.00000000000000000, #11 ) ;
#13 = CALENDAR_DATE ( 2012, 16, 11 ) ;
#14 = DATE_AND_TIME ( #13, #12 ) ;
#15 = PERSON_AND_ORGANIZATION ( #221, #1 ) ;
#16 = APPROVAL_PERSON_ORGANIZATION ( #15, #325, #76 ) ;
#17 = COORDINATED_UNIVERSAL_TIME_OFFSET ( 4, 0, .AHEAD. ) ;
#18 = LOCAL_TIME ( 17, 57, 10.00000000000000000, #17 ) ;
#19 = CALENDAR_DATE ( 2012, 16, 11 ) ;
#20 = DATE_AND_TIME ( #19, #18 ) ;
#21 = APPROVAL_DATE_TIME ( #20, #325 ) ;
#22 = PERSON_AND_ORGANIZATION ( #221, #1 ) ;
#23 = PERSON_AND_ORGANIZATION ( #221, #1 ) ;
#24 = PERSON_AND_ORGANIZATION ( #221, #1 ) ;
#25 = COORDINATED_UNIVERSAL_TIME_OFFSET ( 4, 0, .AHEAD. ) ;
#26 = LOCAL_TIME ( 17, 57, 10.00000000000000000, #25 ) ;
#27 = CALENDAR_DATE ( 2012, 16, 11 ) ;
#28 = DATE_AND_TIME ( #27, #26 ) ;
#29 = PERSON_AND_ORGANIZATION ( #221, #1 ) ;
#30 = APPROVAL_PERSON_ORGANIZATION ( #29, #332, #69 ) ;
#31 = COORDINATED_UNIVERSAL_TIME_OFFSET ( 4, 0, .AHEAD. ) ;
#32 = LOCAL_TIME ( 17, 57, 10.00000000000000000, #31 ) ;
#33 = CALENDAR_DATE ( 2012, 16, 11 ) ;
#34 = DATE_AND_TIME ( #33, #32 ) ;
#35 = APPROVAL_DATE_TIME ( #34, #332 ) ;
#36 = AXIS2_PLACEMENT_3D ( 'NONE', #137, #140, #145 ) ;
#37 = AXIS2_PLACEMENT_3D ( 'NONE', #149, #139, #138 ) ;
#38 = AXIS2_PLACEMENT_3D ( 'NONE', #135, #130, #129 ) ;
#39 = ORIENTED_EDGE ( 'NONE', *, *, #226, .F. ) ;
#40 = EDGE_LOOP ( 'NONE', ( #307 ) ) ;
#41 = ORIENTED_EDGE ( 'NONE', *, *, #227, .F. ) ;
#42 = EDGE_LOOP ( 'NONE', ( #47, #304, #211, #299 ) ) ;
#43 = VERTEX_POINT ( 'NONE', #192 ) ;
#44 = VERTEX_POINT ( 'NONE', #193 ) ;
#45 = VERTEX_POINT ( 'NONE', #190 ) ;
#46 = VERTEX_POINT ( 'NONE', #191 ) ;
#47 = ORIENTED_EDGE ( 'NONE', *, *, #229, .F. ) ;
#48 = EDGE_LOOP ( 'NONE', ( #279 ) ) ;
#49 = VERTEX_POINT ( 'NONE', #188 ) ;
#50 = EDGE_LOOP ( 'NONE', ( #302 ) ) ;
#51 = VERTEX_POINT ( 'NONE', #187 ) ;
#52 = VERTEX_POINT ( 'NONE', #189 ) ;
#53 = EDGE_LOOP ( 'NONE', ( #275 ) ) ;
#54 = ORIENTED_EDGE ( 'NONE', *, *, #225, .T. ) ;
#55 = EDGE_LOOP ( 'NONE', ( #68 ) ) ;
#56 = EDGE_LOOP ( 'NONE', ( #215 ) ) ;
#57 = EDGE_LOOP ( 'NONE', ( #305, #293, #296, #309 ) ) ;
#58 = EDGE_LOOP ( 'NONE', ( #278, #277, #312, #217 ) ) ;
#59 = EDGE_LOOP ( 'NONE', ( #65 ) ) ;
#60 = EDGE_LOOP ( 'NONE', ( #295 ) ) ;
#61 = VERTEX_POINT ( 'NONE', #186 ) ;
#62 = AXIS2_PLACEMENT_3D ( 'NONE', #131, #132, #124 ) ;
#63 = DESIGN_CONTEXT ( 'detailed design', #83, 'design' ) ;
#64 = PRODUCT_DEFINITION_SHAPE ( 'NONE', 'NONE',  #319 ) ;
#65 = ORIENTED_EDGE ( 'NONE', *, *, #198, .T. ) ;
#66 = ORIENTED_EDGE ( 'NONE', *, *, #233, .F. ) ;
#67 = FACE_OUTER_BOUND ( 'NONE', #344, .T. ) ;
#68 = ORIENTED_EDGE ( 'NONE', *, *, #201, .T. ) ;
#69 = APPROVAL_ROLE ( '' ) ;
#70 = APPROVAL_STATUS ( 'not_yet_approved' ) ;
#71 = DATE_TIME_ROLE ( 'classification_date' ) ;
#72 = PERSON_AND_ORGANIZATION_ROLE ( 'classification_officer' ) ;
#73 = SECURITY_CLASSIFICATION_LEVEL ( 'unclassified' ) ;
#74 = PERSON_AND_ORGANIZATION_ROLE ( 'design_supplier' ) ;
#75 = PERSON_AND_ORGANIZATION_ROLE ( 'creator' ) ;
#76 = APPROVAL_ROLE ( '' ) ;
#77 = APPROVAL_STATUS ( 'not_yet_approved' ) ;
#78 = DATE_TIME_ROLE ( 'creation_date' ) ;
#79 = PERSON_AND_ORGANIZATION_ROLE ( 'creator' ) ;
#80 = APPROVAL_ROLE ( '' ) ;
#81 = APPROVAL_STATUS ( 'not_yet_approved' ) ;
#82 = APPLICATION_PROTOCOL_DEFINITION ( 'international standard', 'config_control_design', 1994, #83 ) ;
#83 = APPLICATION_CONTEXT ( 'configuration controlled 3d designs of mechanical parts and assemblies' ) ;
#84 = PERSON_AND_ORGANIZATION_ROLE ( 'design_owner' ) ;
#85 = MECHANICAL_CONTEXT ( 'NONE', #87, 'mechanical' ) ;
#86 = DIRECTION ( 'NONE',  ( 1.000000000000000000, 0.0000000000000000000, 0.0000000000000000000 ) ) ;
#87 = APPLICATION_CONTEXT ( 'configuration controlled 3d designs of mechanical parts and assemblies' ) ;
#88 = DIRECTION ( 'NONE',  ( 0.0000000000000000000, 0.0000000000000000000, 1.000000000000000000 ) ) ;
#89 = APPLICATION_PROTOCOL_DEFINITION ( 'international standard', 'config_control_design', 1994, #87 ) ;
#90 = CARTESIAN_POINT ( 'NONE',  ( -95.00000000000000000, -20.00000000000007100, -5.000000000000000000 ) ) ;
#91 = DIRECTION ( 'NONE',  ( -1.000000000000000000, -1.826024711554533900E-017, 0.0000000000000000000 ) ) ;
#92 = CARTESIAN_POINT ( 'NONE',  ( 95.00000000000000000, 20.00000000000005300, 0.0000000000000000000 ) ) ;
#93 = DIRECTION ( 'NONE',  ( 0.0000000000000000000, 0.0000000000000000000, 1.000000000000000000 ) ) ;
#94 = DIRECTION ( 'NONE',  ( 0.0000000000000000000, -1.000000000000000000, 0.0000000000000000000 ) ) ;
#95 = CARTESIAN_POINT ( 'NONE',  ( -25.00000000000000000, 6.123233995736727800E-017, -5.000000000000000000 ) ) ;
#96 = CARTESIAN_POINT ( 'NONE',  ( -95.00000000000000000, 20.00000000000005000, -5.000000000000000000 ) ) ;
#97 = DIRECTION ( 'NONE',  ( 1.000000000000000000, 0.0000000000000000000, 0.0000000000000000000 ) ) ;
#98 = DIRECTION ( 'NONE',  ( 1.000000000000000000, 0.0000000000000000000, 0.0000000000000000000 ) ) ;
#99 = DIRECTION ( 'NONE',  ( 0.0000000000000000000, 0.0000000000000000000, 1.000000000000000000 ) ) ;
#100 = CARTESIAN_POINT ( 'NONE',  ( -75.00000000000000000, -6.062001655779398500E-015, 0.0000000000000000000 ) ) ;
#101 = DIRECTION ( 'NONE',  ( 1.000000000000000000, 0.0000000000000000000, 0.0000000000000000000 ) ) ;
#102 = DIRECTION ( 'NONE',  ( 1.000000000000000000, 0.0000000000000000000, 0.0000000000000000000 ) ) ;
#103 =( NAMED_UNIT ( * ) SI_UNIT ( $, .STERADIAN. ) SOLID_ANGLE_UNIT ( ) );
#104 =( NAMED_UNIT ( * ) PLANE_ANGLE_UNIT ( ) SI_UNIT ( $, .RADIAN. ) );
#105 =( LENGTH_UNIT ( ) NAMED_UNIT ( * ) SI_UNIT ( .MILLI., .METRE. ) );
#106 = DIRECTION ( 'NONE',  ( 0.0000000000000000000, 0.0000000000000000000, 1.000000000000000000 ) ) ;
#107 = CARTESIAN_POINT ( 'NONE',  ( -68.50000000000005700, -6.062001655779398500E-015, 0.0000000000000000000 ) ) ;
#108 = CARTESIAN_POINT ( 'NONE',  ( 68.50000000000005700, -6.062001655779398500E-015, 0.0000000000000000000 ) ) ;
#109 = CARTESIAN_POINT ( 'NONE',  ( -95.00000000000000000, -20.00000000000007100, 0.0000000000000000000 ) ) ;
#110 = CARTESIAN_POINT ( 'NONE',  ( 31.49999999999994300, 6.123233995736727800E-017, 0.0000000000000000000 ) ) ;
#111 = CARTESIAN_POINT ( 'NONE',  ( -18.50000000000005000, 6.123233995736727800E-017, 0.0000000000000000000 ) ) ;
#112 = CARTESIAN_POINT ( 'NONE',  ( -18.50000000000005000, 6.123233995736727800E-017, -5.000000000000000000 ) ) ;
#113 = CARTESIAN_POINT ( 'NONE',  ( -68.50000000000005700, -6.062001655779398500E-015, -5.000000000000000000 ) ) ;
#114 = CARTESIAN_POINT ( 'NONE',  ( 31.49999999999994300, 6.123233995736727800E-017, -5.000000000000000000 ) ) ;
#115 = CARTESIAN_POINT ( 'NONE',  ( 0.0000000000000000000, 0.0000000000000000000, 0.0000000000000000000 ) ) ;
#116 = DIRECTION ( 'NONE',  ( 1.000000000000000000, 0.0000000000000000000, -0.0000000000000000000 ) ) ;
#117 = DIRECTION ( 'NONE',  ( 0.0000000000000000000, 0.0000000000000000000, 1.000000000000000000 ) ) ;
#118 = CARTESIAN_POINT ( 'NONE',  ( 95.00000000000000000, 20.00000000000005300, 0.0000000000000000000 ) ) ;
#119 = CARTESIAN_POINT ( 'NONE',  ( 68.50000000000005700, -6.062001655779398500E-015, -5.000000000000000000 ) ) ;
#120 = CARTESIAN_POINT ( 'NONE',  ( -95.00000000000000000, 20.00000000000005000, -5.000000000000000000 ) ) ;
#121 = PLANE ( 'NONE',  #316 ) ;
#122 = DIRECTION ( 'NONE',  ( 0.0000000000000000000, -0.0000000000000000000, 1.000000000000000000 ) ) ;
#123 = CARTESIAN_POINT ( 'NONE',  ( 75.00000000000000000, -6.062001655779398500E-015, -5.000000000000000000 ) ) ;
#124 = DIRECTION ( 'NONE',  ( 1.000000000000000000, 0.0000000000000000000, -0.0000000000000000000 ) ) ;
#125 = DIRECTION ( 'NONE',  ( 0.0000000000000000000, 0.0000000000000000000, 1.000000000000000000 ) ) ;
#126 = DIRECTION ( 'NONE',  ( 1.000000000000000000, 0.0000000000000000000, 0.0000000000000000000 ) ) ;
#127 = PLANE ( 'NONE',  #62 ) ;
#128 = DIRECTION ( 'NONE',  ( 0.0000000000000000000, 0.0000000000000000000, 1.000000000000000000 ) ) ;
#129 = DIRECTION ( 'NONE',  ( -1.000000000000000000, -1.826024711554533900E-017, 0.0000000000000000000 ) ) ;
#130 = DIRECTION ( 'NONE',  ( -1.826024711554533900E-017, 1.000000000000000000, 0.0000000000000000000 ) ) ;
#131 = CARTESIAN_POINT ( 'NONE',  ( 95.00000000000000000, 20.00000000000005300, -5.000000000000000000 ) ) ;
#132 = DIRECTION ( 'NONE',  ( 0.0000000000000000000, -0.0000000000000000000, 1.000000000000000000 ) ) ;
#133 = PLANE ( 'NONE',  #38 ) ;
#134 = CARTESIAN_POINT ( 'NONE',  ( -95.00000000000000000, -20.00000000000007100, -5.000000000000000000 ) ) ;
#135 = CARTESIAN_POINT ( 'NONE',  ( 95.00000000000000000, 20.00000000000005300, -5.000000000000000000 ) ) ;
#136 = CARTESIAN_POINT ( 'NONE',  ( 95.00000000000000000, -20.00000000000007100, 0.0000000000000000000 ) ) ;
#137 = CARTESIAN_POINT ( 'NONE',  ( -75.00000000000000000, -6.062001655779398500E-015, -5.000000000000000000 ) ) ;
#138 = DIRECTION ( 'NONE',  ( 0.0000000000000000000, 0.0000000000000000000, -1.000000000000000000 ) ) ;
#139 = DIRECTION ( 'NONE',  ( 1.000000000000000000, 0.0000000000000000000, 0.0000000000000000000 ) ) ;
#140 = DIRECTION ( 'NONE',  ( 0.0000000000000000000, 0.0000000000000000000, 1.000000000000000000 ) ) ;
#141 = PLANE ( 'NONE',  #37 ) ;
#142 = DIRECTION ( 'NONE',  ( 0.0000000000000000000, 1.000000000000000000, 0.0000000000000000000 ) ) ;
#143 = DIRECTION ( 'NONE',  ( 0.0000000000000000000, 0.0000000000000000000, 1.000000000000000000 ) ) ;
#144 = DIRECTION ( 'NONE',  ( -1.000000000000000000, 0.0000000000000000000, 0.0000000000000000000 ) ) ;
#145 = DIRECTION ( 'NONE',  ( 1.000000000000000000, 0.0000000000000000000, 0.0000000000000000000 ) ) ;
#146 = PLANE ( 'NONE',  #196 ) ;
#147 = DIRECTION ( 'NONE',  ( 0.0000000000000000000, -0.0000000000000000000, -1.000000000000000000 ) ) ;
#148 = DIRECTION ( 'NONE',  ( 0.0000000000000000000, -1.000000000000000000, 0.0000000000000000000 ) ) ;
#149 = CARTESIAN_POINT ( 'NONE',  ( 95.00000000000000000, -20.00000000000007100, -5.000000000000000000 ) ) ;
#150 = CARTESIAN_POINT ( 'NONE',  ( -95.00000000000000000, 20.00000000000005000, -5.000000000000000000 ) ) ;
#151 = PLANE ( 'NONE',  #202 ) ;
#152 = DIRECTION ( 'NONE',  ( -1.000000000000000000, 0.0000000000000000000, 0.0000000000000000000 ) ) ;
#153 = DIRECTION ( 'NONE',  ( 0.0000000000000000000, 0.0000000000000000000, 1.000000000000000000 ) ) ;
#154 = CARTESIAN_POINT ( 'NONE',  ( -95.00000000000000000, -20.00000000000007100, -5.000000000000000000 ) ) ;
#155 = DIRECTION ( 'NONE',  ( 0.0000000000000000000, 0.0000000000000000000, 1.000000000000000000 ) ) ;
#156 = CARTESIAN_POINT ( 'NONE',  ( 75.00000000000000000, -6.062001655779398500E-015, 0.0000000000000000000 ) ) ;
#157 = CARTESIAN_POINT ( 'NONE',  ( 25.00000000000000000, 6.123233995736727800E-017, -5.000000000000000000 ) ) ;
#158 = DIRECTION ( 'NONE',  ( 0.0000000000000000000, 0.0000000000000000000, 1.000000000000000000 ) ) ;
#159 = DIRECTION ( 'NONE',  ( 1.000000000000000000, 0.0000000000000000000, 0.0000000000000000000 ) ) ;
#160 = CARTESIAN_POINT ( 'NONE',  ( 95.00000000000000000, 20.00000000000005300, -5.000000000000000000 ) ) ;
#161 = DIRECTION ( 'NONE',  ( 1.000000000000000000, 0.0000000000000000000, 0.0000000000000000000 ) ) ;
#162 = DIRECTION ( 'NONE',  ( 0.0000000000000000000, -1.000000000000000000, 0.0000000000000000000 ) ) ;
#163 = DIRECTION ( 'NONE',  ( 0.0000000000000000000, 0.0000000000000000000, 1.000000000000000000 ) ) ;
#164 = CARTESIAN_POINT ( 'NONE',  ( 25.00000000000000000, 6.123233995736727800E-017, 0.0000000000000000000 ) ) ;
#165 = CARTESIAN_POINT ( 'NONE',  ( 95.00000000000000000, -20.00000000000007100, -5.000000000000000000 ) ) ;
#166 = DIRECTION ( 'NONE',  ( 1.000000000000000000, 0.0000000000000000000, 0.0000000000000000000 ) ) ;
#167 = DIRECTION ( 'NONE',  ( 0.0000000000000000000, 0.0000000000000000000, 1.000000000000000000 ) ) ;
#168 = CARTESIAN_POINT ( 'NONE',  ( -25.00000000000000000, 6.123233995736727800E-017, 0.0000000000000000000 ) ) ;
#169 = DIRECTION ( 'NONE',  ( 0.0000000000000000000, 1.000000000000000000, 0.0000000000000000000 ) ) ;
#170 = CARTESIAN_POINT ( 'NONE',  ( 95.00000000000000000, -20.00000000000007100, -5.000000000000000000 ) ) ;
#171 = DIRECTION ( 'NONE',  ( -1.000000000000000000, 0.0000000000000000000, 0.0000000000000000000 ) ) ;
#172 = DIRECTION ( 'NONE',  ( 0.0000000000000000000, 0.0000000000000000000, 1.000000000000000000 ) ) ;
#173 = CARTESIAN_POINT ( 'NONE',  ( 75.00000000000000000, -6.062001655779398500E-015, -5.000000000000000000 ) ) ;
#174 = DIRECTION ( 'NONE',  ( 1.000000000000000000, 0.0000000000000000000, 0.0000000000000000000 ) ) ;
#175 = DIRECTION ( 'NONE',  ( 0.0000000000000000000, 0.0000000000000000000, 1.000000000000000000 ) ) ;
#176 = CARTESIAN_POINT ( 'NONE',  ( -75.00000000000000000, -6.062001655779398500E-015, -5.000000000000000000 ) ) ;
#177 = DIRECTION ( 'NONE',  ( 1.000000000000000000, 0.0000000000000000000, 0.0000000000000000000 ) ) ;
#178 = DIRECTION ( 'NONE',  ( 0.0000000000000000000, 0.0000000000000000000, 1.000000000000000000 ) ) ;
#179 = CARTESIAN_POINT ( 'NONE',  ( 25.00000000000000000, 6.123233995736727800E-017, -5.000000000000000000 ) ) ;
#180 = CARTESIAN_POINT ( 'NONE',  ( -95.00000000000000000, 20.00000000000005000, 0.0000000000000000000 ) ) ;
#181 = DIRECTION ( 'NONE',  ( -1.000000000000000000, -1.826024711554533900E-017, 0.0000000000000000000 ) ) ;
#182 = DIRECTION ( 'NONE',  ( 1.000000000000000000, 0.0000000000000000000, 0.0000000000000000000 ) ) ;
#183 = DIRECTION ( 'NONE',  ( 0.0000000000000000000, 0.0000000000000000000, 1.000000000000000000 ) ) ;
#184 = CARTESIAN_POINT ( 'NONE',  ( -25.00000000000000000, 6.123233995736727800E-017, -5.000000000000000000 ) ) ;
#185 = CARTESIAN_POINT ( 'NONE',  ( 95.00000000000000000, 20.00000000000005300, -5.000000000000000000 ) ) ;
#186 = CARTESIAN_POINT ( 'NONE',  ( 95.00000000000000000, -20.00000000000007100, -5.000000000000000000 ) ) ;
#187 = CARTESIAN_POINT ( 'NONE',  ( -95.00000000000000000, -20.00000000000007100, -5.000000000000000000 ) ) ;
#188 = CARTESIAN_POINT ( 'NONE',  ( -95.00000000000000000, -20.00000000000007100, 0.0000000000000000000 ) ) ;
#189 = CARTESIAN_POINT ( 'NONE',  ( 95.00000000000000000, 20.00000000000005300, -5.000000000000000000 ) ) ;
#190 = CARTESIAN_POINT ( 'NONE',  ( -95.00000000000000000, 20.00000000000005000, -5.000000000000000000 ) ) ;
#191 = CARTESIAN_POINT ( 'NONE',  ( 95.00000000000000000, 20.00000000000005300, 0.0000000000000000000 ) ) ;
#192 = CARTESIAN_POINT ( 'NONE',  ( -95.00000000000000000, 20.00000000000005000, 0.0000000000000000000 ) ) ;
#193 = CARTESIAN_POINT ( 'NONE',  ( 95.00000000000000000, -20.00000000000007100, 0.0000000000000000000 ) ) ;
#194 = AXIS2_PLACEMENT_3D ( 'NONE', #157, #155, #159 ) ;
#195 = AXIS2_PLACEMENT_3D ( 'NONE', #176, #175, #174 ) ;
#196 = AXIS2_PLACEMENT_3D ( 'NONE', #150, #144, #143 ) ;
#197 = AXIS2_PLACEMENT_3D ( 'NONE', #100, #99, #98 ) ;
#198 = EDGE_CURVE ( 'NONE', #366, #366, #272, .T. ) ;
#199 = EDGE_CURVE ( 'NONE', #52, #45, #273, .T. ) ;
#200 = AXIS2_PLACEMENT_3D ( 'NONE', #184, #183, #182 ) ;
#201 = EDGE_CURVE ( 'NONE', #367, #367, #218, .T. ) ;
#202 = AXIS2_PLACEMENT_3D ( 'NONE', #154, #148, #147 ) ;
#203 = AXIS2_PLACEMENT_3D ( 'NONE', #164, #163, #161 ) ;
#204 = AXIS2_PLACEMENT_3D ( 'NONE', #168, #167, #166 ) ;
#205 = EDGE_CURVE ( 'NONE', #368, #368, #313, .T. ) ;
#206 = AXIS2_PLACEMENT_3D ( 'NONE', #95, #158, #101 ) ;
#207 = AXIS2_PLACEMENT_3D ( 'NONE', #173, #172, #171 ) ;
#208 = AXIS2_PLACEMENT_3D ( 'NONE', #179, #178, #177 ) ;
#209 = AXIS2_PLACEMENT_3D ( 'NONE', #156, #153, #152 ) ;
#210 = EDGE_CURVE ( 'NONE', #369, #369, #338, .T. ) ;
#211 = ORIENTED_EDGE ( 'NONE', *, *, #231, .T. ) ;
#212 = ORIENTED_EDGE ( 'NONE', *, *, #234, .T. ) ;
#213 = ORIENTED_EDGE ( 'NONE', *, *, #223, .T. ) ;
#214 = ORIENTED_EDGE ( 'NONE', *, *, #198, .F. ) ;
#215 = ORIENTED_EDGE ( 'NONE', *, *, #222, .F. ) ;
#216 = ORIENTED_EDGE ( 'NONE', *, *, #222, .T. ) ;
#217 = ORIENTED_EDGE ( 'NONE', *, *, #233, .T. ) ;
#218 = CIRCLE ( 'NONE', #208, 6.499999999999943200 ) ;
#219 = VECTOR ( 'NONE', #181, 1000.000000000000000 ) ;
#220 = PRODUCT ( 'Ïëàñòèíà ñîåäèíèòåëüíàÿ ñ 4 îòâ._BMD1012HDZ', 'Ïëàñòèíà ñîåäèíèòåëüíàÿ ñ 4 îòâ._BMD1012HDZ', '', ( #85 ) ) ;
#221 = PERSON ( 'UNSPECIFIED', 'UNSPECIFIED', 'UNSPECIFIED', ('UNSPECIFIED'), ('UNSPECIFIED'), ('UNSPECIFIED') ) ;
#222 = EDGE_CURVE ( 'NONE', #370, #370, #237, .T. ) ;
#223 = EDGE_CURVE ( 'NONE', #371, #371, #239, .T. ) ;
#224 = EDGE_CURVE ( 'NONE', #372, #372, #241, .T. ) ;
#225 = EDGE_CURVE ( 'NONE', #61, #52, #238, .T. ) ;
#226 = EDGE_CURVE ( 'NONE', #44, #46, #242, .T. ) ;
#227 = EDGE_CURVE ( 'NONE', #61, #44, #240, .T. ) ;
#228 = EDGE_CURVE ( 'NONE', #52, #46, #244, .T. ) ;
#229 = EDGE_CURVE ( 'NONE', #49, #44, #248, .T. ) ;
#230 = EDGE_CURVE ( 'NONE', #373, #373, #250, .T. ) ;
#231 = EDGE_CURVE ( 'NONE', #51, #61, #253, .T. ) ;
#232 = EDGE_CURVE ( 'NONE', #45, #51, #252, .T. ) ;
#233 = EDGE_CURVE ( 'NONE', #45, #43, #246, .T. ) ;
#234 = EDGE_CURVE ( 'NONE', #46, #43, #257, .T. ) ;
#235 = EDGE_CURVE ( 'NONE', #51, #49, #259, .T. ) ;
#236 = EDGE_CURVE ( 'NONE', #43, #49, #261, .T. ) ;
#237 = CIRCLE ( 'NONE', #204, 6.499999999999950300 ) ;
#238 = LINE ( 'NONE', #170, #243 ) ;
#239 = CIRCLE ( 'NONE', #203, 6.499999999999943200 ) ;
#240 = LINE ( 'NONE', #165, #247 ) ;
#241 = CIRCLE ( 'NONE', #209, 6.499999999999936100 ) ;
#242 = LINE ( 'NONE', #136, #245 ) ;
#243 = VECTOR ( 'NONE', #142, 1000.000000000000000 ) ;
#244 = LINE ( 'NONE', #160, #249 ) ;
#245 = VECTOR ( 'NONE', #169, 1000.000000000000000 ) ;
#246 = LINE ( 'NONE', #96, #258 ) ;
#247 = VECTOR ( 'NONE', #128, 1000.000000000000000 ) ;
#248 = LINE ( 'NONE', #109, #251 ) ;
#249 = VECTOR ( 'NONE', #117, 1000.000000000000000 ) ;
#250 = CIRCLE ( 'NONE', #197, 6.499999999999936100 ) ;
#251 = VECTOR ( 'NONE', #102, 1000.000000000000000 ) ;
#252 = LINE ( 'NONE', #120, #254 ) ;
#253 = LINE ( 'NONE', #134, #255 ) ;
#254 = VECTOR ( 'NONE', #94, 1000.000000000000000 ) ;
#255 = VECTOR ( 'NONE', #97, 1000.000000000000000 ) ;
#256 = FACE_OUTER_BOUND ( 'NONE', #347, .T. ) ;
#257 = LINE ( 'NONE', #92, #260 ) ;
#258 = VECTOR ( 'NONE', #93, 1000.000000000000000 ) ;
#259 = LINE ( 'NONE', #90, #262 ) ;
#260 = VECTOR ( 'NONE', #91, 1000.000000000000000 ) ;
#261 = LINE ( 'NONE', #180, #264 ) ;
#262 = VECTOR ( 'NONE', #88, 1000.000000000000000 ) ;
#263 = FACE_OUTER_BOUND ( 'NONE', #342, .T. ) ;
#264 = VECTOR ( 'NONE', #162, 1000.000000000000000 ) ;
#265 = FACE_OUTER_BOUND ( 'NONE', #345, .T. ) ;
#266 = FACE_OUTER_BOUND ( 'NONE', #341, .T. ) ;
#267 = FACE_OUTER_BOUND ( 'NONE', #346, .T. ) ;
#268 = FACE_OUTER_BOUND ( 'NONE', #42, .T. ) ;
#269 = CYLINDRICAL_SURFACE ( 'NONE', #206, 6.499999999999950300 ) ;
#270 = FACE_OUTER_BOUND ( 'NONE', #339, .T. ) ;
#271 = CYLINDRICAL_SURFACE ( 'NONE', #194, 6.499999999999943200 ) ;
#272 = CIRCLE ( 'NONE', #200, 6.499999999999950300 ) ;
#273 = LINE ( 'NONE', #185, #219 ) ;
#274 = ORIENTED_EDGE ( 'NONE', *, *, #235, .T. ) ;
#275 = ORIENTED_EDGE ( 'NONE', *, *, #210, .T. ) ;
#276 = ORIENTED_EDGE ( 'NONE', *, *, #232, .T. ) ;
#277 = ORIENTED_EDGE ( 'NONE', *, *, #228, .F. ) ;
#278 = ORIENTED_EDGE ( 'NONE', *, *, #234, .F. ) ;
#279 = ORIENTED_EDGE ( 'NONE', *, *, #205, .T. ) ;
#280 = ADVANCED_FACE ( 'NONE', ( #265, #263 ), #269, .F. ) ;
#281 = ADVANCED_FACE ( 'NONE', ( #266, #270 ), #271, .F. ) ;
#282 = ADVANCED_FACE ( 'NONE', ( #268 ), #151, .T. ) ;
#283 = ADVANCED_FACE ( 'NONE', ( #267 ), #146, .T. ) ;
#284 = ADVANCED_FACE ( 'NONE', ( #256 ), #141, .T. ) ;
#285 = ADVANCED_FACE ( 'NONE', ( #67, #350 ), #354, .F. ) ;
#286 = ADVANCED_FACE ( 'NONE', ( #351 ), #133, .T. ) ;
#287 = ADVANCED_FACE ( 'NONE', ( #352, #356, #349, #355, #353 ), #127, .F. ) ;
#288 = ADVANCED_FACE ( 'NONE', ( #357, #361 ), #363, .F. ) ;
#289 = ADVANCED_FACE ( 'NONE', ( #359, #364, #358, #360, #362 ), #121, .T. ) ;
#290 = ADVANCED_BREP_SHAPE_REPRESENTATION ( '¦ûð¸ªøýð ¸þõôøýøªõû¹ýð  ¸ 4 þªò._BMD1012HDZ', ( #292, #317 ), #315 ) ;
#291 = UNCERTAINTY_MEASURE_WITH_UNIT (LENGTH_MEASURE( 1.000000000000000100E-005 ), #105, 'distance_accuracy_value', 'NONE');
#292 = MANIFOLD_SOLID_BREP ( 'Base-Flange1', #340 ) ;
#293 = ORIENTED_EDGE ( 'NONE', *, *, #231, .F. ) ;
#294 = ORIENTED_EDGE ( 'NONE', *, *, #205, .F. ) ;
#295 = ORIENTED_EDGE ( 'NONE', *, *, #230, .T. ) ;
#296 = ORIENTED_EDGE ( 'NONE', *, *, #232, .F. ) ;
#297 = ORIENTED_EDGE ( 'NONE', *, *, #230, .F. ) ;
#298 = ORIENTED_EDGE ( 'NONE', *, *, #226, .T. ) ;
#299 = ORIENTED_EDGE ( 'NONE', *, *, #227, .T. ) ;
#300 = ORIENTED_EDGE ( 'NONE', *, *, #229, .T. ) ;
#301 = ORIENTED_EDGE ( 'NONE', *, *, #224, .F. ) ;
#302 = ORIENTED_EDGE ( 'NONE', *, *, #223, .F. ) ;
#303 = ORIENTED_EDGE ( 'NONE', *, *, #224, .T. ) ;
#304 = ORIENTED_EDGE ( 'NONE', *, *, #235, .F. ) ;
#305 = ORIENTED_EDGE ( 'NONE', *, *, #225, .F. ) ;
#306 = ORIENTED_EDGE ( 'NONE', *, *, #236, .T. ) ;
#307 = ORIENTED_EDGE ( 'NONE', *, *, #210, .F. ) ;
#308 = ORIENTED_EDGE ( 'NONE', *, *, #228, .T. ) ;
#309 = ORIENTED_EDGE ( 'NONE', *, *, #199, .F. ) ;
#310 = ORIENTED_EDGE ( 'NONE', *, *, #201, .F. ) ;
#311 = ORIENTED_EDGE ( 'NONE', *, *, #236, .F. ) ;
#312 = ORIENTED_EDGE ( 'NONE', *, *, #199, .T. ) ;
#313 = CIRCLE ( 'NONE', #195, 6.499999999999936100 ) ;
#314 = AXIS2_PLACEMENT_3D ( 'NONE', #123, #125, #126 ) ;
#315 =( GEOMETRIC_REPRESENTATION_CONTEXT ( 3 ) GLOBAL_UNCERTAINTY_ASSIGNED_CONTEXT ( ( #291 ) ) GLOBAL_UNIT_ASSIGNED_CONTEXT ( ( #105, #104, #103 ) ) REPRESENTATION_CONTEXT ( 'NONE', 'WORKASPACE' ) );
#316 = AXIS2_PLACEMENT_3D ( 'NONE', #118, #122, #116 ) ;
#317 = AXIS2_PLACEMENT_3D ( 'NONE', #115, #106, #86 ) ;
#318 = CC_DESIGN_PERSON_AND_ORGANIZATION_ASSIGNMENT ( #2, #84, ( #220 ) ) ;
#319 = PRODUCT_DEFINITION ( 'UNKNOWN', '', #324, #63 ) ;
#320 = APPROVAL ( #81, 'UNSPECIFIED' ) ;
#321 = CC_DESIGN_APPROVAL ( #320, ( #319 ) ) ;
#322 = CC_DESIGN_PERSON_AND_ORGANIZATION_ASSIGNMENT ( #10, #79, ( #319 ) ) ;
#323 = CC_DESIGN_DATE_AND_TIME_ASSIGNMENT ( #14, #78, ( #319 ) ) ;
#324 = PRODUCT_DEFINITION_FORMATION_WITH_SPECIFIED_SOURCE ( 'ANY', '', #220, .NOT_KNOWN. ) ;
#325 = APPROVAL ( #77, 'UNSPECIFIED' ) ;
#326 = CC_DESIGN_APPROVAL ( #325, ( #324 ) ) ;
#327 = CC_DESIGN_PERSON_AND_ORGANIZATION_ASSIGNMENT ( #22, #75, ( #324 ) ) ;
#328 = CC_DESIGN_PERSON_AND_ORGANIZATION_ASSIGNMENT ( #23, #74, ( #324 ) ) ;
#329 = SECURITY_CLASSIFICATION ( '', '', #73 ) ;
#330 = CC_DESIGN_PERSON_AND_ORGANIZATION_ASSIGNMENT ( #24, #72, ( #329 ) ) ;
#331 = CC_DESIGN_DATE_AND_TIME_ASSIGNMENT ( #28, #71, ( #329 ) ) ;
#332 = APPROVAL ( #70, 'UNSPECIFIED' ) ;
#333 = CC_DESIGN_APPROVAL ( #332, ( #329 ) ) ;
#334 = CC_DESIGN_SECURITY_CLASSIFICATION ( #329, ( #324 ) ) ;
#335 = PRODUCT_RELATED_PRODUCT_CATEGORY ( 'detail', '', ( #220 ) ) ;
#336 = EDGE_LOOP ( 'NONE', ( #298, #212, #306, #300 ) ) ;
#337 = EDGE_LOOP ( 'NONE', ( #301 ) ) ;
#338 = CIRCLE ( 'NONE', #207, 6.499999999999936100 ) ;
#339 = EDGE_LOOP ( 'NONE', ( #213 ) ) ;
#340 = CLOSED_SHELL ( 'NONE', ( #284, #282, #283, #286, #287, #289, #285, #288, #281, #280 ) ) ;
#341 = EDGE_LOOP ( 'NONE', ( #310 ) ) ;
#342 = EDGE_LOOP ( 'NONE', ( #216 ) ) ;
#343 = EDGE_LOOP ( 'NONE', ( #303 ) ) ;
#344 = EDGE_LOOP ( 'NONE', ( #294 ) ) ;
#345 = EDGE_LOOP ( 'NONE', ( #214 ) ) ;
#346 = EDGE_LOOP ( 'NONE', ( #311, #66, #276, #274 ) ) ;
#347 = EDGE_LOOP ( 'NONE', ( #39, #41, #54, #308 ) ) ;
#348 = EDGE_LOOP ( 'NONE', ( #297 ) ) ;
#349 = FACE_BOUND ( 'NONE', #53, .T. ) ;
#350 = FACE_OUTER_BOUND ( 'NONE', #60, .T. ) ;
#351 = FACE_OUTER_BOUND ( 'NONE', #58, .T. ) ;
#352 = FACE_BOUND ( 'NONE', #59, .T. ) ;
#353 = FACE_OUTER_BOUND ( 'NONE', #57, .T. ) ;
#354 = CYLINDRICAL_SURFACE ( 'NONE', #36, 6.499999999999936100 ) ;
#355 = FACE_BOUND ( 'NONE', #48, .T. ) ;
#356 = FACE_BOUND ( 'NONE', #55, .T. ) ;
#357 = FACE_OUTER_BOUND ( 'NONE', #40, .T. ) ;
#358 = FACE_BOUND ( 'NONE', #337, .T. ) ;
#359 = FACE_BOUND ( 'NONE', #56, .T. ) ;
#360 = FACE_BOUND ( 'NONE', #348, .T. ) ;
#361 = FACE_OUTER_BOUND ( 'NONE', #343, .T. ) ;
#362 = FACE_OUTER_BOUND ( 'NONE', #336, .T. ) ;
#363 = CYLINDRICAL_SURFACE ( 'NONE', #314, 6.499999999999936100 ) ;
#364 = FACE_BOUND ( 'NONE', #50, .T. ) ;
#365 = SHAPE_DEFINITION_REPRESENTATION ( #64, #290 ) ;
#366 = VERTEX_POINT ( 'NONE', #112 ) ;
#367 = VERTEX_POINT ( 'NONE', #114 ) ;
#368 = VERTEX_POINT ( 'NONE', #113 ) ;
#369 = VERTEX_POINT ( 'NONE', #119 ) ;
#370 = VERTEX_POINT ( 'NONE', #111 ) ;
#371 = VERTEX_POINT ( 'NONE', #110 ) ;
#372 = VERTEX_POINT ( 'NONE', #108 ) ;
#373 = VERTEX_POINT ( 'NONE', #107 ) ;
ENDSEC;
END-ISO-10303-21;
