ISO-10303-21;
HEADER;
FILE_DESCRIPTION (( 'STEP AP203' ),
    '1' );
FILE_NAME ('Êðûøêà íà îòâåòâèòåëü Ò-îáðàçíûé âåðòèêàëüíûé TD_38303.STEP',
    '2012-11-15T11:28:03',
    ( 'Àñååâ' ),
    ( '' ),
    'SwSTEP 2.0',
    'SolidWorks 2012',
    '' );
FILE_SCHEMA (( 'CONFIG_CONTROL_DESIGN' ));
ENDSEC;

DATA;
#1 = EDGE_LOOP ( 'NONE', ( #108 ) ) ;
#2 = CARTESIAN_POINT ( 'NONE',  ( -8.162383766162926900E-016, 0.5999999999999999800, 327.0000000000000600 ) ) ;
#3 = CARTESIAN_POINT ( 'NONE',  ( 76.59999999999999400, 0.5999999999999999800, 342.0000000000000000 ) ) ;
#4 = DIRECTION ( 'NONE',  ( 0.0000000000000000000, -0.0000000000000000000, -1.000000000000000000 ) ) ;
#5 = CARTESIAN_POINT ( 'NONE',  ( 76.59999999999999400, -14.00000000000000000, 342.0000000000000000 ) ) ;
#6 = DIRECTION ( 'NONE',  ( -0.0000000000000000000, -1.000000000000000000, 0.0000000000000000000 ) ) ;
#7 = CARTESIAN_POINT ( 'NONE',  ( 76.59999999999999400, 0.0000000000000000000, 0.0000000000000000000 ) ) ;
#8 = UNCERTAINTY_MEASURE_WITH_UNIT (LENGTH_MEASURE( 1.000000000000000100E-005 ), #23, 'distance_accuracy_value', 'NONE');
#9 = ADVANCED_BREP_SHAPE_REPRESENTATION ( '¦¨v°úð ýð þªòõªòøªõû¹ T-þñ¨ð÷ývù òõ¨ªøúðû¹ývù TD_38303', ( #10, #243 ), #229 ) ;
#10 = MANIFOLD_SOLID_BREP ( 'Âûðåç-Âûòÿíóòü1', #433 ) ;
#11 = CARTESIAN_POINT ( 'NONE',  ( -76.00000000000000000, 0.5999999999999999800, 0.0000000000000000000 ) ) ;
#12 = EDGE_LOOP ( 'NONE', ( #67, #69, #70, #103 ) ) ;
#13 = DIRECTION ( 'NONE',  ( -1.000000000000000000, 0.0000000000000000000, 0.0000000000000000000 ) ) ;
#14 = CARTESIAN_POINT ( 'NONE',  ( 0.0000000000000000000, 0.0000000000000000000, 342.0000000000000000 ) ) ;
#15 = DIRECTION ( 'NONE',  ( -0.0000000000000000000, 0.0000000000000000000, -1.000000000000000000 ) ) ;
#16 = DIRECTION ( 'NONE',  ( -1.000000000000000000, 0.0000000000000000000, 0.0000000000000000000 ) ) ;
#17 = CARTESIAN_POINT ( 'NONE',  ( 1.734723475976807100E-015, 0.5999999999999999800, 17.49999999999999600 ) ) ;
#18 = CARTESIAN_POINT ( 'NONE',  ( -8.162383766162926900E-016, 0.5999999999999999800, 324.5000000000000600 ) ) ;
#19 = CARTESIAN_POINT ( 'NONE',  ( -8.162383766162926900E-016, 0.0000000000000000000, 329.5000000000000600 ) ) ;
#20 = CARTESIAN_POINT ( 'NONE',  ( 0.0000000000000000000, 0.0000000000000000000, 0.0000000000000000000 ) ) ;
#21 = CARTESIAN_POINT ( 'NONE',  ( 1.734723475976807100E-015, 0.0000000000000000000, 17.49999999999999600 ) ) ;
#22 = DIRECTION ( 'NONE',  ( 0.0000000000000000000, 0.0000000000000000000, 1.000000000000000000 ) ) ;
#23 =( LENGTH_UNIT ( ) NAMED_UNIT ( * ) SI_UNIT ( .MILLI., .METRE. ) );
#24 =( NAMED_UNIT ( * ) PLANE_ANGLE_UNIT ( ) SI_UNIT ( $, .RADIAN. ) );
#25 =( NAMED_UNIT ( * ) SI_UNIT ( $, .STERADIAN. ) SOLID_ANGLE_UNIT ( ) );
#26 = APPLICATION_PROTOCOL_DEFINITION ( 'international standard', 'config_control_design', 1994, #27 ) ;
#27 = APPLICATION_CONTEXT ( 'configuration controlled 3d designs of mechanical parts and assemblies' ) ;
#28 = DIRECTION ( 'NONE',  ( 1.000000000000000000, 0.0000000000000000000, 0.0000000000000000000 ) ) ;
#29 = MECHANICAL_CONTEXT ( 'NONE', #27, 'mechanical' ) ;
#30 = PERSON_AND_ORGANIZATION_ROLE ( 'design_owner' ) ;
#31 = APPLICATION_CONTEXT ( 'configuration controlled 3d designs of mechanical parts and assemblies' ) ;
#32 = APPLICATION_PROTOCOL_DEFINITION ( 'international standard', 'config_control_design', 1994, #31 ) ;
#33 = APPROVAL_STATUS ( 'not_yet_approved' ) ;
#34 = APPROVAL_ROLE ( '' ) ;
#35 = PERSON_AND_ORGANIZATION_ROLE ( 'creator' ) ;
#36 = DATE_TIME_ROLE ( 'creation_date' ) ;
#37 = APPROVAL_STATUS ( 'not_yet_approved' ) ;
#38 = APPROVAL_ROLE ( '' ) ;
#39 = PERSON_AND_ORGANIZATION_ROLE ( 'creator' ) ;
#40 = PERSON_AND_ORGANIZATION_ROLE ( 'design_supplier' ) ;
#41 = SECURITY_CLASSIFICATION_LEVEL ( 'unclassified' ) ;
#42 = PERSON_AND_ORGANIZATION_ROLE ( 'classification_officer' ) ;
#43 = DATE_TIME_ROLE ( 'classification_date' ) ;
#44 = APPROVAL_STATUS ( 'not_yet_approved' ) ;
#45 = APPROVAL_ROLE ( '' ) ;
#46 = VERTEX_POINT ( 'NONE', #140 ) ;
#47 = VERTEX_POINT ( 'NONE', #139 ) ;
#48 = VERTEX_POINT ( 'NONE', #173 ) ;
#49 = VERTEX_POINT ( 'NONE', #152 ) ;
#50 = VERTEX_POINT ( 'NONE', #137 ) ;
#51 = VERTEX_POINT ( 'NONE', #138 ) ;
#52 = VERTEX_POINT ( 'NONE', #136 ) ;
#53 = VERTEX_POINT ( 'NONE', #181 ) ;
#54 = VERTEX_POINT ( 'NONE', #180 ) ;
#55 = VERTEX_POINT ( 'NONE', #179 ) ;
#56 = VERTEX_POINT ( 'NONE', #178 ) ;
#57 = VERTEX_POINT ( 'NONE', #182 ) ;
#58 = VERTEX_POINT ( 'NONE', #183 ) ;
#59 = VERTEX_POINT ( 'NONE', #156 ) ;
#60 = VERTEX_POINT ( 'NONE', #155 ) ;
#61 = VERTEX_POINT ( 'NONE', #154 ) ;
#62 = ORIENTED_EDGE ( 'NONE', *, *, #223, .T. ) ;
#63 = ORIENTED_EDGE ( 'NONE', *, *, #235, .T. ) ;
#64 = ORIENTED_EDGE ( 'NONE', *, *, #236, .F. ) ;
#65 = ORIENTED_EDGE ( 'NONE', *, *, #209, .F. ) ;
#66 = ORIENTED_EDGE ( 'NONE', *, *, #238, .T. ) ;
#67 = ORIENTED_EDGE ( 'NONE', *, *, #237, .F. ) ;
#68 = ORIENTED_EDGE ( 'NONE', *, *, #239, .F. ) ;
#69 = ORIENTED_EDGE ( 'NONE', *, *, #218, .F. ) ;
#70 = ORIENTED_EDGE ( 'NONE', *, *, #204, .T. ) ;
#71 = ORIENTED_EDGE ( 'NONE', *, *, #205, .T. ) ;
#72 = ORIENTED_EDGE ( 'NONE', *, *, #238, .F. ) ;
#73 = ORIENTED_EDGE ( 'NONE', *, *, #219, .F. ) ;
#74 = ORIENTED_EDGE ( 'NONE', *, *, #241, .F. ) ;
#75 = ORIENTED_EDGE ( 'NONE', *, *, #218, .T. ) ;
#76 = ORIENTED_EDGE ( 'NONE', *, *, #202, .T. ) ;
#77 = ORIENTED_EDGE ( 'NONE', *, *, #213, .F. ) ;
#78 = ORIENTED_EDGE ( 'NONE', *, *, #230, .F. ) ;
#79 = ORIENTED_EDGE ( 'NONE', *, *, #220, .T. ) ;
#80 = ORIENTED_EDGE ( 'NONE', *, *, #235, .F. ) ;
#81 = ORIENTED_EDGE ( 'NONE', *, *, #230, .T. ) ;
#82 = ORIENTED_EDGE ( 'NONE', *, *, #217, .F. ) ;
#83 = ORIENTED_EDGE ( 'NONE', *, *, #201, .T. ) ;
#84 = ORIENTED_EDGE ( 'NONE', *, *, #223, .F. ) ;
#85 = ORIENTED_EDGE ( 'NONE', *, *, #237, .T. ) ;
#86 = ORIENTED_EDGE ( 'NONE', *, *, #213, .T. ) ;
#87 = ORIENTED_EDGE ( 'NONE', *, *, #206, .T. ) ;
#88 = ORIENTED_EDGE ( 'NONE', *, *, #207, .T. ) ;
#89 = ORIENTED_EDGE ( 'NONE', *, *, #221, .F. ) ;
#90 = ORIENTED_EDGE ( 'NONE', *, *, #217, .T. ) ;
#91 = ORIENTED_EDGE ( 'NONE', *, *, #240, .F. ) ;
#92 = ORIENTED_EDGE ( 'NONE', *, *, #215, .F. ) ;
#93 = ORIENTED_EDGE ( 'NONE', *, *, #234, .F. ) ;
#94 = ORIENTED_EDGE ( 'NONE', *, *, #216, .F. ) ;
#95 = ORIENTED_EDGE ( 'NONE', *, *, #202, .F. ) ;
#96 = ORIENTED_EDGE ( 'NONE', *, *, #220, .F. ) ;
#97 = ORIENTED_EDGE ( 'NONE', *, *, #241, .T. ) ;
#98 = ORIENTED_EDGE ( 'NONE', *, *, #204, .F. ) ;
#99 = ORIENTED_EDGE ( 'NONE', *, *, #234, .T. ) ;
#100 = ORIENTED_EDGE ( 'NONE', *, *, #215, .T. ) ;
#101 = ORIENTED_EDGE ( 'NONE', *, *, #209, .T. ) ;
#102 = ORIENTED_EDGE ( 'NONE', *, *, #222, .T. ) ;
#103 = ORIENTED_EDGE ( 'NONE', *, *, #239, .T. ) ;
#104 = ORIENTED_EDGE ( 'NONE', *, *, #236, .T. ) ;
#105 = ORIENTED_EDGE ( 'NONE', *, *, #222, .F. ) ;
#106 = ORIENTED_EDGE ( 'NONE', *, *, #206, .F. ) ;
#107 = ORIENTED_EDGE ( 'NONE', *, *, #224, .F. ) ;
#108 = ORIENTED_EDGE ( 'NONE', *, *, #205, .F. ) ;
#109 = ORIENTED_EDGE ( 'NONE', *, *, #221, .T. ) ;
#110 = ORIENTED_EDGE ( 'NONE', *, *, #207, .F. ) ;
#111 = ORIENTED_EDGE ( 'NONE', *, *, #216, .T. ) ;
#112 = ORIENTED_EDGE ( 'NONE', *, *, #240, .T. ) ;
#113 = ORIENTED_EDGE ( 'NONE', *, *, #203, .T. ) ;
#114 = ORIENTED_EDGE ( 'NONE', *, *, #203, .F. ) ;
#115 = ORIENTED_EDGE ( 'NONE', *, *, #201, .F. ) ;
#116 = ORIENTED_EDGE ( 'NONE', *, *, #224, .T. ) ;
#117 = ORIENTED_EDGE ( 'NONE', *, *, #219, .T. ) ;
#118 = EDGE_LOOP ( 'NONE', ( #113 ) ) ;
#119 = EDGE_LOOP ( 'NONE', ( #106, #110, #101, #76 ) ) ;
#120 = EDGE_LOOP ( 'NONE', ( #78 ) ) ;
#121 = EDGE_LOOP ( 'NONE', ( #82, #73, #79, #100 ) ) ;
#122 = EDGE_LOOP ( 'NONE', ( #109, #105, #84, #117 ) ) ;
#123 = EDGE_LOOP ( 'NONE', ( #107 ) ) ;
#124 = PRODUCT_DEFINITION_SHAPE ( 'NONE', 'NONE',  #245 ) ;
#125 = DESIGN_CONTEXT ( 'detailed design', #31, 'design' ) ;
#126 = ADVANCED_FACE ( 'NONE', ( #431, #263 ), #268, .F. ) ;
#127 = ADVANCED_FACE ( 'NONE', ( #265 ), #166, .F. ) ;
#128 = ADVANCED_FACE ( 'NONE', ( #266 ), #169, .F. ) ;
#129 = ADVANCED_FACE ( 'NONE', ( #264, #271, #269 ), #177, .F. ) ;
#130 = ADVANCED_FACE ( 'NONE', ( #270 ), #143, .T. ) ;
#131 = ADVANCED_FACE ( 'NONE', ( #267, #275, #273 ), #149, .T. ) ;
#132 = ADVANCED_FACE ( 'NONE', ( #274, #278 ), #280, .F. ) ;
#133 = ADVANCED_FACE ( 'NONE', ( #276 ), #141, .T. ) ;
#134 = ADVANCED_FACE ( 'NONE', ( #272 ), #176, .T. ) ;
#135 = ADVANCED_FACE ( 'NONE', ( #277 ), #186, .T. ) ;
#136 = CARTESIAN_POINT ( 'NONE',  ( 76.59999999999999400, -14.00000000000000000, 342.0000000000000000 ) ) ;
#137 = CARTESIAN_POINT ( 'NONE',  ( 76.00000000000000000, 0.0000000000000000000, 342.0000000000000000 ) ) ;
#138 = CARTESIAN_POINT ( 'NONE',  ( 76.00000000000000000, 0.0000000000000000000, 0.0000000000000000000 ) ) ;
#139 = CARTESIAN_POINT ( 'NONE',  ( 76.00000000000000000, -14.00000000000000000, 0.0000000000000000000 ) ) ;
#140 = CARTESIAN_POINT ( 'NONE',  ( 76.59999999999999400, -14.00000000000000000, 0.0000000000000000000 ) ) ;
#141 = PLANE ( 'NONE',  #193 ) ;
#142 = DIRECTION ( 'NONE',  ( 1.000000000000000000, 0.0000000000000000000, -0.0000000000000000000 ) ) ;
#143 = PLANE ( 'NONE',  #196 ) ;
#144 = DIRECTION ( 'NONE',  ( -0.0000000000000000000, 1.000000000000000000, -0.0000000000000000000 ) ) ;
#145 = CARTESIAN_POINT ( 'NONE',  ( -76.00000000000000000, 0.5999999999999999800, 342.0000000000000000 ) ) ;
#146 = DIRECTION ( 'NONE',  ( -0.0000000000000000000, 0.0000000000000000000, -1.000000000000000000 ) ) ;
#147 = DIRECTION ( 'NONE',  ( 0.0000000000000000000, -0.0000000000000000000, 1.000000000000000000 ) ) ;
#148 = DIRECTION ( 'NONE',  ( 0.0000000000000000000, 0.0000000000000000000, 1.000000000000000000 ) ) ;
#149 = PLANE ( 'NONE',  #195 ) ;
#150 = DIRECTION ( 'NONE',  ( -0.0000000000000000000, 0.0000000000000000000, -1.000000000000000000 ) ) ;
#151 = DIRECTION ( 'NONE',  ( 1.000000000000000000, 0.0000000000000000000, -0.0000000000000000000 ) ) ;
#152 = CARTESIAN_POINT ( 'NONE',  ( -76.00000000000000000, 0.0000000000000000000, 0.0000000000000000000 ) ) ;
#153 = CARTESIAN_POINT ( 'NONE',  ( 1.734723475976807100E-015, -14.00099999999999900, 14.99999999999999300 ) ) ;
#154 = CARTESIAN_POINT ( 'NONE',  ( -76.00000000000000000, 0.0000000000000000000, 342.0000000000000000 ) ) ;
#155 = CARTESIAN_POINT ( 'NONE',  ( -76.00000000000000000, -14.00000000000000000, 342.0000000000000000 ) ) ;
#156 = CARTESIAN_POINT ( 'NONE',  ( -76.59999999999999400, -14.00000000000000000, 342.0000000000000000 ) ) ;
#157 = CARTESIAN_POINT ( 'NONE',  ( -76.00000000000000000, 0.0000000000000000000, 342.0000000000000000 ) ) ;
#158 = DIRECTION ( 'NONE',  ( 0.0000000000000000000, -0.0000000000000000000, -1.000000000000000000 ) ) ;
#159 = DIRECTION ( 'NONE',  ( -0.0000000000000000000, 1.000000000000000000, -0.0000000000000000000 ) ) ;
#160 = DIRECTION ( 'NONE',  ( 0.0000000000000000000, -1.000000000000000000, 0.0000000000000000000 ) ) ;
#161 = DIRECTION ( 'NONE',  ( -0.0000000000000000000, -0.0000000000000000000, -1.000000000000000000 ) ) ;
#162 = CARTESIAN_POINT ( 'NONE',  ( -8.162383766162926900E-016, -14.00099999999999900, 327.0000000000000600 ) ) ;
#163 = DIRECTION ( 'NONE',  ( -1.000000000000000000, 0.0000000000000000000, 0.0000000000000000000 ) ) ;
#164 = DIRECTION ( 'NONE',  ( 0.0000000000000000000, 1.000000000000000000, 0.0000000000000000000 ) ) ;
#165 = CARTESIAN_POINT ( 'NONE',  ( 76.00000000000000000, 0.0000000000000000000, 342.0000000000000000 ) ) ;
#166 = PLANE ( 'NONE',  #199 ) ;
#167 = DIRECTION ( 'NONE',  ( 0.0000000000000000000, 0.0000000000000000000, 1.000000000000000000 ) ) ;
#168 = CARTESIAN_POINT ( 'NONE',  ( 76.59999999999999400, -14.00000000000000000, 342.0000000000000000 ) ) ;
#169 = PLANE ( 'NONE',  #198 ) ;
#170 = DIRECTION ( 'NONE',  ( 0.0000000000000000000, 0.0000000000000000000, 1.000000000000000000 ) ) ;
#171 = DIRECTION ( 'NONE',  ( 0.0000000000000000000, 1.000000000000000000, 0.0000000000000000000 ) ) ;
#172 = CARTESIAN_POINT ( 'NONE',  ( -76.00000000000000000, 0.0000000000000000000, 342.0000000000000000 ) ) ;
#173 = CARTESIAN_POINT ( 'NONE',  ( 76.00000000000000000, -14.00000000000000000, 342.0000000000000000 ) ) ;
#174 = DIRECTION ( 'NONE',  ( 0.0000000000000000000, -0.0000000000000000000, 1.000000000000000000 ) ) ;
#175 = CARTESIAN_POINT ( 'NONE',  ( 76.59999999999999400, 0.0000000000000000000, 342.0000000000000000 ) ) ;
#176 = PLANE ( 'NONE',  #262 ) ;
#177 = PLANE ( 'NONE',  #197 ) ;
#178 = CARTESIAN_POINT ( 'NONE',  ( 76.59999999999999400, 0.5999999999999999800, 342.0000000000000000 ) ) ;
#179 = CARTESIAN_POINT ( 'NONE',  ( -76.59999999999999400, 0.5999999999999999800, 0.0000000000000000000 ) ) ;
#180 = CARTESIAN_POINT ( 'NONE',  ( -76.59999999999999400, -14.00000000000000000, 0.0000000000000000000 ) ) ;
#181 = CARTESIAN_POINT ( 'NONE',  ( 76.59999999999999400, 0.5999999999999999800, 0.0000000000000000000 ) ) ;
#182 = CARTESIAN_POINT ( 'NONE',  ( -76.00000000000000000, -14.00000000000000000, 0.0000000000000000000 ) ) ;
#183 = CARTESIAN_POINT ( 'NONE',  ( -76.59999999999999400, 0.5999999999999999800, 342.0000000000000000 ) ) ;
#184 = PRODUCT ( 'Êðûøêà íà îòâåòâèòåëü Ò-îáðàçíûé âåðòèêàëüíûé TD_38303', 'Êðûøêà íà îòâåòâèòåëü Ò-îáðàçíûé âåðòèêàëüíûé TD_38303', '', ( #29 ) ) ;
#185 = PERSON ( 'UNSPECIFIED', 'UNSPECIFIED', 'UNSPECIFIED', ('UNSPECIFIED'), ('UNSPECIFIED'), ('UNSPECIFIED') ) ;
#186 = PLANE ( 'NONE',  #233 ) ;
#187 = DIRECTION ( 'NONE',  ( -0.0000000000000000000, 0.0000000000000000000, -1.000000000000000000 ) ) ;
#188 = DIRECTION ( 'NONE',  ( 0.0000000000000000000, -1.000000000000000000, 0.0000000000000000000 ) ) ;
#189 = DIRECTION ( 'NONE',  ( -1.000000000000000000, 0.0000000000000000000, 0.0000000000000000000 ) ) ;
#190 = DIRECTION ( 'NONE',  ( 0.0000000000000000000, 0.0000000000000000000, 1.000000000000000000 ) ) ;
#191 = CARTESIAN_POINT ( 'NONE',  ( -76.59999999999999400, 0.0000000000000000000, 342.0000000000000000 ) ) ;
#192 = CARTESIAN_POINT ( 'NONE',  ( -76.00000000000000000, -14.00000000000000000, 342.0000000000000000 ) ) ;
#193 = AXIS2_PLACEMENT_3D ( 'NONE', #168, #160, #158 ) ;
#194 = AXIS2_PLACEMENT_3D ( 'NONE', #162, #144, #148 ) ;
#195 = AXIS2_PLACEMENT_3D ( 'NONE', #145, #171, #147 ) ;
#196 = AXIS2_PLACEMENT_3D ( 'NONE', #175, #142, #146 ) ;
#197 = AXIS2_PLACEMENT_3D ( 'NONE', #172, #164, #174 ) ;
#198 = AXIS2_PLACEMENT_3D ( 'NONE', #165, #151, #150 ) ;
#199 = AXIS2_PLACEMENT_3D ( 'NONE', #157, #163, #170 ) ;
#200 = AXIS2_PLACEMENT_3D ( 'NONE', #153, #159, #167 ) ;
#201 = EDGE_CURVE ( 'NONE', #53, #46, #283, .T. ) ;
#202 = EDGE_CURVE ( 'NONE', #56, #53, #281, .T. ) ;
#203 = EDGE_CURVE ( 'NONE', #390, #390, #279, .T. ) ;
#204 = EDGE_CURVE ( 'NONE', #52, #48, #287, .T. ) ;
#205 = EDGE_CURVE ( 'NONE', #392, #392, #284, .T. ) ;
#206 = EDGE_CURVE ( 'NONE', #55, #53, #288, .T. ) ;
#207 = EDGE_CURVE ( 'NONE', #58, #55, #290, .T. ) ;
#208 = EDGE_LOOP ( 'NONE', ( #115, #95, #104, #75 ) ) ;
#209 = EDGE_CURVE ( 'NONE', #58, #56, #286, .T. ) ;
#210 = EDGE_LOOP ( 'NONE', ( #77, #92, #111, #88 ) ) ;
#211 = EDGE_LOOP ( 'NONE', ( #99, #72, #80, #102 ) ) ;
#212 = EDGE_LOOP ( 'NONE', ( #97, #98, #64, #65, #94, #96, #62, #63 ) ) ;
#213 = EDGE_CURVE ( 'NONE', #54, #55, #294, .T. ) ;
#214 = EDGE_LOOP ( 'NONE', ( #114 ) ) ;
#215 = EDGE_CURVE ( 'NONE', #59, #54, #296, .T. ) ;
#216 = EDGE_CURVE ( 'NONE', #59, #58, #293, .T. ) ;
#217 = EDGE_CURVE ( 'NONE', #57, #54, #300, .T. ) ;
#218 = EDGE_CURVE ( 'NONE', #52, #46, #302, .T. ) ;
#219 = EDGE_CURVE ( 'NONE', #60, #57, #298, .T. ) ;
#220 = EDGE_CURVE ( 'NONE', #60, #59, #304, .T. ) ;
#221 = EDGE_CURVE ( 'NONE', #57, #49, #308, .T. ) ;
#222 = EDGE_CURVE ( 'NONE', #61, #49, #310, .T. ) ;
#223 = EDGE_CURVE ( 'NONE', #60, #61, #306, .T. ) ;
#224 = EDGE_CURVE ( 'NONE', #393, #393, #312, .T. ) ;
#225 = EDGE_LOOP ( 'NONE', ( #116 ) ) ;
#226 = AXIS2_PLACEMENT_3D ( 'NONE', #388, #187, #13 ) ;
#227 = AXIS2_PLACEMENT_3D ( 'NONE', #366, #367, #368 ) ;
#228 = AXIS2_PLACEMENT_3D ( 'NONE', #369, #370, #371 ) ;
#229 =( GEOMETRIC_REPRESENTATION_CONTEXT ( 3 ) GLOBAL_UNCERTAINTY_ASSIGNED_CONTEXT ( ( #8 ) ) GLOBAL_UNIT_ASSIGNED_CONTEXT ( ( #23, #24, #25 ) ) REPRESENTATION_CONTEXT ( 'NONE', 'WORKASPACE' ) );
#230 = EDGE_CURVE ( 'NONE', #394, #394, #318, .T. ) ;
#231 = AXIS2_PLACEMENT_3D ( 'NONE', #338, #339, #340 ) ;
#232 = AXIS2_PLACEMENT_3D ( 'NONE', #2, #333, #334 ) ;
#233 = AXIS2_PLACEMENT_3D ( 'NONE', #192, #188, #4 ) ;
#234 = EDGE_CURVE ( 'NONE', #49, #51, #316, .T. ) ;
#235 = EDGE_CURVE ( 'NONE', #61, #50, #317, .T. ) ;
#236 = EDGE_CURVE ( 'NONE', #56, #52, #321, .T. ) ;
#237 = EDGE_CURVE ( 'NONE', #46, #47, #322, .T. ) ;
#238 = EDGE_CURVE ( 'NONE', #50, #51, #324, .T. ) ;
#239 = EDGE_CURVE ( 'NONE', #48, #47, #314, .T. ) ;
#240 = EDGE_CURVE ( 'NONE', #51, #47, #327, .T. ) ;
#241 = EDGE_CURVE ( 'NONE', #50, #48, #329, .T. ) ;
#242 = AXIS2_PLACEMENT_3D ( 'NONE', #14, #15, #16 ) ;
#243 = AXIS2_PLACEMENT_3D ( 'NONE', #20, #22, #28 ) ;
#244 = CC_DESIGN_PERSON_AND_ORGANIZATION_ASSIGNMENT ( #397, #30, ( #184 ) ) ;
#245 = PRODUCT_DEFINITION ( 'UNKNOWN', '', #250, #125 ) ;
#246 = APPROVAL ( #33, 'UNSPECIFIED' ) ;
#247 = CC_DESIGN_APPROVAL ( #246, ( #245 ) ) ;
#248 = CC_DESIGN_PERSON_AND_ORGANIZATION_ASSIGNMENT ( #405, #35, ( #245 ) ) ;
#249 = CC_DESIGN_DATE_AND_TIME_ASSIGNMENT ( #409, #36, ( #245 ) ) ;
#250 = PRODUCT_DEFINITION_FORMATION_WITH_SPECIFIED_SOURCE ( 'ANY', '', #184, .NOT_KNOWN. ) ;
#251 = APPROVAL ( #37, 'UNSPECIFIED' ) ;
#252 = CC_DESIGN_APPROVAL ( #251, ( #250 ) ) ;
#253 = CC_DESIGN_PERSON_AND_ORGANIZATION_ASSIGNMENT ( #417, #39, ( #250 ) ) ;
#254 = CC_DESIGN_PERSON_AND_ORGANIZATION_ASSIGNMENT ( #418, #40, ( #250 ) ) ;
#255 = SECURITY_CLASSIFICATION ( '', '', #41 ) ;
#256 = CC_DESIGN_PERSON_AND_ORGANIZATION_ASSIGNMENT ( #419, #42, ( #255 ) ) ;
#257 = CC_DESIGN_DATE_AND_TIME_ASSIGNMENT ( #423, #43, ( #255 ) ) ;
#258 = APPROVAL ( #44, 'UNSPECIFIED' ) ;
#259 = CC_DESIGN_APPROVAL ( #258, ( #255 ) ) ;
#260 = CC_DESIGN_SECURITY_CLASSIFICATION ( #255, ( #250 ) ) ;
#261 = PRODUCT_RELATED_PRODUCT_CATEGORY ( 'detail', '', ( #184 ) ) ;
#262 = AXIS2_PLACEMENT_3D ( 'NONE', #191, #189, #190 ) ;
#263 = FACE_OUTER_BOUND ( 'NONE', #432, .T. ) ;
#264 = FACE_BOUND ( 'NONE', #123, .T. ) ;
#265 = FACE_OUTER_BOUND ( 'NONE', #122, .T. ) ;
#266 = FACE_OUTER_BOUND ( 'NONE', #435, .T. ) ;
#267 = FACE_BOUND ( 'NONE', #214, .T. ) ;
#268 = CYLINDRICAL_SURFACE ( 'NONE', #200, 2.500000000000002200 ) ;
#269 = FACE_OUTER_BOUND ( 'NONE', #211, .T. ) ;
#270 = FACE_OUTER_BOUND ( 'NONE', #208, .T. ) ;
#271 = FACE_BOUND ( 'NONE', #120, .T. ) ;
#272 = FACE_OUTER_BOUND ( 'NONE', #210, .T. ) ;
#273 = FACE_OUTER_BOUND ( 'NONE', #119, .T. ) ;
#274 = FACE_OUTER_BOUND ( 'NONE', #118, .T. ) ;
#275 = FACE_BOUND ( 'NONE', #1, .T. ) ;
#276 = FACE_OUTER_BOUND ( 'NONE', #12, .T. ) ;
#277 = FACE_OUTER_BOUND ( 'NONE', #121, .T. ) ;
#278 = FACE_OUTER_BOUND ( 'NONE', #225, .T. ) ;
#279 = CIRCLE ( 'NONE', #232, 2.500000000000002200 ) ;
#280 = CYLINDRICAL_SURFACE ( 'NONE', #194, 2.500000000000002200 ) ;
#281 = LINE ( 'NONE', #3, #285 ) ;
#282 = VECTOR ( 'NONE', #6, 1000.000000000000000 ) ;
#283 = LINE ( 'NONE', #7, #282 ) ;
#284 = CIRCLE ( 'NONE', #231, 2.500000000000002200 ) ;
#285 = VECTOR ( 'NONE', #161, 1000.000000000000000 ) ;
#286 = LINE ( 'NONE', #342, #295 ) ;
#287 = LINE ( 'NONE', #5, #289 ) ;
#288 = LINE ( 'NONE', #11, #292 ) ;
#289 = VECTOR ( 'NONE', #336, 1000.000000000000000 ) ;
#290 = LINE ( 'NONE', #335, #291 ) ;
#291 = VECTOR ( 'NONE', #344, 1000.000000000000000 ) ;
#292 = VECTOR ( 'NONE', #341, 1000.000000000000000 ) ;
#293 = LINE ( 'NONE', #337, #301 ) ;
#294 = LINE ( 'NONE', #346, #297 ) ;
#295 = VECTOR ( 'NONE', #345, 1000.000000000000000 ) ;
#296 = LINE ( 'NONE', #348, #299 ) ;
#297 = VECTOR ( 'NONE', #347, 1000.000000000000000 ) ;
#298 = LINE ( 'NONE', #343, #307 ) ;
#299 = VECTOR ( 'NONE', #350, 1000.000000000000000 ) ;
#300 = LINE ( 'NONE', #352, #303 ) ;
#301 = VECTOR ( 'NONE', #351, 1000.000000000000000 ) ;
#302 = LINE ( 'NONE', #354, #305 ) ;
#303 = VECTOR ( 'NONE', #353, 1000.000000000000000 ) ;
#304 = LINE ( 'NONE', #349, #309 ) ;
#305 = VECTOR ( 'NONE', #356, 1000.000000000000000 ) ;
#306 = LINE ( 'NONE', #355, #315 ) ;
#307 = VECTOR ( 'NONE', #357, 1000.000000000000000 ) ;
#308 = LINE ( 'NONE', #359, #311 ) ;
#309 = VECTOR ( 'NONE', #358, 1000.000000000000000 ) ;
#310 = LINE ( 'NONE', #361, #313 ) ;
#311 = VECTOR ( 'NONE', #360, 1000.000000000000000 ) ;
#312 = CIRCLE ( 'NONE', #227, 2.500000000000002200 ) ;
#313 = VECTOR ( 'NONE', #362, 1000.000000000000000 ) ;
#314 = LINE ( 'NONE', #373, #328 ) ;
#315 = VECTOR ( 'NONE', #363, 1000.000000000000000 ) ;
#316 = LINE ( 'NONE', #364, #320 ) ;
#317 = LINE ( 'NONE', #365, #319 ) ;
#318 = CIRCLE ( 'NONE', #228, 2.500000000000002200 ) ;
#319 = VECTOR ( 'NONE', #374, 1000.000000000000000 ) ;
#320 = VECTOR ( 'NONE', #372, 1000.000000000000000 ) ;
#321 = LINE ( 'NONE', #375, #323 ) ;
#322 = LINE ( 'NONE', #377, #325 ) ;
#323 = VECTOR ( 'NONE', #376, 1000.000000000000000 ) ;
#324 = LINE ( 'NONE', #379, #326 ) ;
#325 = VECTOR ( 'NONE', #378, 1000.000000000000000 ) ;
#326 = VECTOR ( 'NONE', #381, 1000.000000000000000 ) ;
#327 = LINE ( 'NONE', #383, #330 ) ;
#328 = VECTOR ( 'NONE', #382, 1000.000000000000000 ) ;
#329 = LINE ( 'NONE', #385, #332 ) ;
#330 = VECTOR ( 'NONE', #384, 1000.000000000000000 ) ;
#331 = FACE_OUTER_BOUND ( 'NONE', #212, .T. ) ;
#332 = VECTOR ( 'NONE', #387, 1000.000000000000000 ) ;
#333 = DIRECTION ( 'NONE',  ( -0.0000000000000000000, 1.000000000000000000, -0.0000000000000000000 ) ) ;
#334 = DIRECTION ( 'NONE',  ( 0.0000000000000000000, 0.0000000000000000000, -1.000000000000000000 ) ) ;
#335 = CARTESIAN_POINT ( 'NONE',  ( -76.59999999999999400, 0.5999999999999999800, 342.0000000000000000 ) ) ;
#336 = DIRECTION ( 'NONE',  ( -1.000000000000000000, 0.0000000000000000000, 0.0000000000000000000 ) ) ;
#337 = CARTESIAN_POINT ( 'NONE',  ( -76.59999999999999400, 0.0000000000000000000, 342.0000000000000000 ) ) ;
#338 = CARTESIAN_POINT ( 'NONE',  ( 1.734723475976807100E-015, 0.5999999999999999800, 14.99999999999999300 ) ) ;
#339 = DIRECTION ( 'NONE',  ( 0.0000000000000000000, 1.000000000000000000, 0.0000000000000000000 ) ) ;
#340 = DIRECTION ( 'NONE',  ( 0.0000000000000000000, 0.0000000000000000000, 1.000000000000000000 ) ) ;
#341 = DIRECTION ( 'NONE',  ( 1.000000000000000000, 0.0000000000000000000, 0.0000000000000000000 ) ) ;
#342 = CARTESIAN_POINT ( 'NONE',  ( -76.00000000000000000, 0.5999999999999999800, 342.0000000000000000 ) ) ;
#343 = CARTESIAN_POINT ( 'NONE',  ( -76.00000000000000000, -14.00000000000000000, 342.0000000000000000 ) ) ;
#344 = DIRECTION ( 'NONE',  ( -0.0000000000000000000, -0.0000000000000000000, -1.000000000000000000 ) ) ;
#345 = DIRECTION ( 'NONE',  ( 1.000000000000000000, 0.0000000000000000000, 0.0000000000000000000 ) ) ;
#346 = CARTESIAN_POINT ( 'NONE',  ( -76.59999999999999400, 0.0000000000000000000, 0.0000000000000000000 ) ) ;
#347 = DIRECTION ( 'NONE',  ( 0.0000000000000000000, 1.000000000000000000, 0.0000000000000000000 ) ) ;
#348 = CARTESIAN_POINT ( 'NONE',  ( -76.59999999999999400, -14.00000000000000000, 342.0000000000000000 ) ) ;
#349 = CARTESIAN_POINT ( 'NONE',  ( -76.00000000000000000, -14.00000000000000000, 342.0000000000000000 ) ) ;
#350 = DIRECTION ( 'NONE',  ( -0.0000000000000000000, -0.0000000000000000000, -1.000000000000000000 ) ) ;
#351 = DIRECTION ( 'NONE',  ( 0.0000000000000000000, 1.000000000000000000, 0.0000000000000000000 ) ) ;
#352 = CARTESIAN_POINT ( 'NONE',  ( -76.00000000000000000, -14.00000000000000000, 0.0000000000000000000 ) ) ;
#353 = DIRECTION ( 'NONE',  ( -1.000000000000000000, 0.0000000000000000000, 0.0000000000000000000 ) ) ;
#354 = CARTESIAN_POINT ( 'NONE',  ( 76.59999999999999400, -14.00000000000000000, 342.0000000000000000 ) ) ;
#355 = CARTESIAN_POINT ( 'NONE',  ( -76.00000000000000000, 0.0000000000000000000, 342.0000000000000000 ) ) ;
#356 = DIRECTION ( 'NONE',  ( -0.0000000000000000000, -0.0000000000000000000, -1.000000000000000000 ) ) ;
#357 = DIRECTION ( 'NONE',  ( -0.0000000000000000000, -0.0000000000000000000, -1.000000000000000000 ) ) ;
#358 = DIRECTION ( 'NONE',  ( -1.000000000000000000, 0.0000000000000000000, 0.0000000000000000000 ) ) ;
#359 = CARTESIAN_POINT ( 'NONE',  ( -76.00000000000000000, 0.0000000000000000000, 0.0000000000000000000 ) ) ;
#360 = DIRECTION ( 'NONE',  ( -0.0000000000000000000, 1.000000000000000000, -0.0000000000000000000 ) ) ;
#361 = CARTESIAN_POINT ( 'NONE',  ( -76.00000000000000000, 0.0000000000000000000, 342.0000000000000000 ) ) ;
#362 = DIRECTION ( 'NONE',  ( -0.0000000000000000000, -0.0000000000000000000, -1.000000000000000000 ) ) ;
#363 = DIRECTION ( 'NONE',  ( -0.0000000000000000000, 1.000000000000000000, -0.0000000000000000000 ) ) ;
#364 = CARTESIAN_POINT ( 'NONE',  ( -76.00000000000000000, 0.0000000000000000000, 0.0000000000000000000 ) ) ;
#365 = CARTESIAN_POINT ( 'NONE',  ( -76.00000000000000000, 0.0000000000000000000, 342.0000000000000000 ) ) ;
#366 = CARTESIAN_POINT ( 'NONE',  ( -8.162383766162926900E-016, 0.0000000000000000000, 327.0000000000000600 ) ) ;
#367 = DIRECTION ( 'NONE',  ( -0.0000000000000000000, -1.000000000000000000, -0.0000000000000000000 ) ) ;
#368 = DIRECTION ( 'NONE',  ( 0.0000000000000000000, 0.0000000000000000000, 1.000000000000000000 ) ) ;
#369 = CARTESIAN_POINT ( 'NONE',  ( 1.734723475976807100E-015, 0.0000000000000000000, 14.99999999999999300 ) ) ;
#370 = DIRECTION ( 'NONE',  ( -0.0000000000000000000, -1.000000000000000000, -0.0000000000000000000 ) ) ;
#371 = DIRECTION ( 'NONE',  ( 0.0000000000000000000, 0.0000000000000000000, 1.000000000000000000 ) ) ;
#372 = DIRECTION ( 'NONE',  ( 1.000000000000000000, 0.0000000000000000000, 0.0000000000000000000 ) ) ;
#373 = CARTESIAN_POINT ( 'NONE',  ( 76.00000000000000000, -14.00000000000000000, 342.0000000000000000 ) ) ;
#374 = DIRECTION ( 'NONE',  ( 1.000000000000000000, 0.0000000000000000000, 0.0000000000000000000 ) ) ;
#375 = CARTESIAN_POINT ( 'NONE',  ( 76.59999999999999400, 0.0000000000000000000, 342.0000000000000000 ) ) ;
#376 = DIRECTION ( 'NONE',  ( -0.0000000000000000000, -1.000000000000000000, 0.0000000000000000000 ) ) ;
#377 = CARTESIAN_POINT ( 'NONE',  ( 76.59999999999999400, -14.00000000000000000, 0.0000000000000000000 ) ) ;
#378 = DIRECTION ( 'NONE',  ( -1.000000000000000000, 0.0000000000000000000, 0.0000000000000000000 ) ) ;
#379 = CARTESIAN_POINT ( 'NONE',  ( 76.00000000000000000, 0.0000000000000000000, 342.0000000000000000 ) ) ;
#380 = PLANE ( 'NONE',  #226 ) ;
#381 = DIRECTION ( 'NONE',  ( -0.0000000000000000000, -0.0000000000000000000, -1.000000000000000000 ) ) ;
#382 = DIRECTION ( 'NONE',  ( -0.0000000000000000000, -0.0000000000000000000, -1.000000000000000000 ) ) ;
#383 = CARTESIAN_POINT ( 'NONE',  ( 76.00000000000000000, 0.0000000000000000000, 0.0000000000000000000 ) ) ;
#384 = DIRECTION ( 'NONE',  ( 0.0000000000000000000, -1.000000000000000000, 0.0000000000000000000 ) ) ;
#385 = CARTESIAN_POINT ( 'NONE',  ( 76.00000000000000000, 0.0000000000000000000, 342.0000000000000000 ) ) ;
#386 = PLANE ( 'NONE',  #242 ) ;
#387 = DIRECTION ( 'NONE',  ( 0.0000000000000000000, -1.000000000000000000, 0.0000000000000000000 ) ) ;
#388 = CARTESIAN_POINT ( 'NONE',  ( 0.0000000000000000000, 0.0000000000000000000, 0.0000000000000000000 ) ) ;
#389 = FACE_OUTER_BOUND ( 'NONE', #395, .T. ) ;
#390 = VERTEX_POINT ( 'NONE', #18 ) ;
#391 = SHAPE_DEFINITION_REPRESENTATION ( #124, #9 ) ;
#392 = VERTEX_POINT ( 'NONE', #17 ) ;
#393 = VERTEX_POINT ( 'NONE', #19 ) ;
#394 = VERTEX_POINT ( 'NONE', #21 ) ;
#395 = EDGE_LOOP ( 'NONE', ( #91, #93, #89, #90, #86, #87, #83, #85 ) ) ;
#396 = ORGANIZATION ( 'UNSPECIFIED', 'UNSPECIFIED', '' ) ;
#397 = PERSON_AND_ORGANIZATION ( #185, #396 ) ;
#398 = PERSON_AND_ORGANIZATION ( #185, #396 ) ;
#399 = APPROVAL_PERSON_ORGANIZATION ( #398, #246, #34 ) ;
#400 = COORDINATED_UNIVERSAL_TIME_OFFSET ( 4, 0, .AHEAD. ) ;
#401 = LOCAL_TIME ( 15, 28, 3.000000000000000000, #400 ) ;
#402 = CALENDAR_DATE ( 2012, 15, 11 ) ;
#403 = DATE_AND_TIME ( #402, #401 ) ;
#404 = APPROVAL_DATE_TIME ( #403, #246 ) ;
#405 = PERSON_AND_ORGANIZATION ( #185, #396 ) ;
#406 = COORDINATED_UNIVERSAL_TIME_OFFSET ( 4, 0, .AHEAD. ) ;
#407 = LOCAL_TIME ( 15, 28, 3.000000000000000000, #406 ) ;
#408 = CALENDAR_DATE ( 2012, 15, 11 ) ;
#409 = DATE_AND_TIME ( #408, #407 ) ;
#410 = PERSON_AND_ORGANIZATION ( #185, #396 ) ;
#411 = APPROVAL_PERSON_ORGANIZATION ( #410, #251, #38 ) ;
#412 = COORDINATED_UNIVERSAL_TIME_OFFSET ( 4, 0, .AHEAD. ) ;
#413 = LOCAL_TIME ( 15, 28, 3.000000000000000000, #412 ) ;
#414 = CALENDAR_DATE ( 2012, 15, 11 ) ;
#415 = DATE_AND_TIME ( #414, #413 ) ;
#416 = APPROVAL_DATE_TIME ( #415, #251 ) ;
#417 = PERSON_AND_ORGANIZATION ( #185, #396 ) ;
#418 = PERSON_AND_ORGANIZATION ( #185, #396 ) ;
#419 = PERSON_AND_ORGANIZATION ( #185, #396 ) ;
#420 = COORDINATED_UNIVERSAL_TIME_OFFSET ( 4, 0, .AHEAD. ) ;
#421 = LOCAL_TIME ( 15, 28, 3.000000000000000000, #420 ) ;
#422 = CALENDAR_DATE ( 2012, 15, 11 ) ;
#423 = DATE_AND_TIME ( #422, #421 ) ;
#424 = PERSON_AND_ORGANIZATION ( #185, #396 ) ;
#425 = APPROVAL_PERSON_ORGANIZATION ( #424, #258, #45 ) ;
#426 = COORDINATED_UNIVERSAL_TIME_OFFSET ( 4, 0, .AHEAD. ) ;
#427 = LOCAL_TIME ( 15, 28, 3.000000000000000000, #426 ) ;
#428 = CALENDAR_DATE ( 2012, 15, 11 ) ;
#429 = DATE_AND_TIME ( #428, #427 ) ;
#430 = APPROVAL_DATE_TIME ( #429, #258 ) ;
#431 = FACE_OUTER_BOUND ( 'NONE', #434, .T. ) ;
#432 = EDGE_LOOP ( 'NONE', ( #81 ) ) ;
#433 = CLOSED_SHELL ( 'NONE', ( #128, #133, #130, #131, #134, #135, #127, #129, #437, #436, #126, #132 ) ) ;
#434 = EDGE_LOOP ( 'NONE', ( #71 ) ) ;
#435 = EDGE_LOOP ( 'NONE', ( #112, #68, #74, #66 ) ) ;
#436 = ADVANCED_FACE ( 'NONE', ( #389 ), #380, .T. ) ;
#437 = ADVANCED_FACE ( 'NONE', ( #331 ), #386, .F. ) ;
ENDSEC;
END-ISO-10303-21;
