ISO-10303-21;
HEADER;
FILE_DESCRIPTION (( 'STEP AP203' ),
    '1' );
FILE_NAME ('Êðûøêà íà îòâåòâèòåëü Ò-îáðàçíûé âåðòèêàëüíûé TD_38302.STEP',
    '2012-11-15T11:28:02',
    ( 'Àñååâ' ),
    ( '' ),
    'SwSTEP 2.0',
    'SolidWorks 2012',
    '' );
FILE_SCHEMA (( 'CONFIG_CONTROL_DESIGN' ));
ENDSEC;

DATA;
#1 = CARTESIAN_POINT ( 'NONE',  ( 51.60000000000000100, 0.5999999999999999800, 0.0000000000000000000 ) ) ;
#2 = LINE ( 'NONE', #367, #7 ) ;
#3 = LINE ( 'NONE', #375, #12 ) ;
#4 = LINE ( 'NONE', #437, #5 ) ;
#5 = VECTOR ( 'NONE', #360, 1000.000000000000000 ) ;
#6 = LINE ( 'NONE', #380, #17 ) ;
#7 = VECTOR ( 'NONE', #366, 1000.000000000000000 ) ;
#8 = FACE_OUTER_BOUND ( 'NONE', #307, .T. ) ;
#9 = LINE ( 'NONE', #371, #10 ) ;
#10 = VECTOR ( 'NONE', #370, 1000.000000000000000 ) ;
#11 = VECTOR ( 'NONE', #389, 1000.000000000000000 ) ;
#12 = VECTOR ( 'NONE', #374, 1000.000000000000000 ) ;
#13 = LINE ( 'NONE', #385, #11 ) ;
#14 = LINE ( 'NONE', #379, #15 ) ;
#15 = VECTOR ( 'NONE', #378, 1000.000000000000000 ) ;
#16 = FACE_BOUND ( 'NONE', #289, .T. ) ;
#17 = VECTOR ( 'NONE', #382, 1000.000000000000000 ) ;
#18 = FACE_OUTER_BOUND ( 'NONE', #292, .T. ) ;
#19 = FACE_OUTER_BOUND ( 'NONE', #293, .T. ) ;
#20 = FACE_OUTER_BOUND ( 'NONE', #298, .T. ) ;
#21 = FACE_OUTER_BOUND ( 'NONE', #305, .T. ) ;
#22 = CYLINDRICAL_SURFACE ( 'NONE', #239, 2.500000000000002200 ) ;
#23 = FACE_OUTER_BOUND ( 'NONE', #296, .T. ) ;
#24 = FACE_OUTER_BOUND ( 'NONE', #295, .T. ) ;
#25 = FACE_BOUND ( 'NONE', #300, .T. ) ;
#26 = FACE_BOUND ( 'NONE', #302, .T. ) ;
#27 = FACE_OUTER_BOUND ( 'NONE', #297, .T. ) ;
#28 = FACE_OUTER_BOUND ( 'NONE', #294, .T. ) ;
#29 = FACE_OUTER_BOUND ( 'NONE', #301, .T. ) ;
#30 = CYLINDRICAL_SURFACE ( 'NONE', #342, 2.500000000000002200 ) ;
#31 = FACE_BOUND ( 'NONE', #306, .T. ) ;
#32 = SHAPE_DEFINITION_REPRESENTATION ( #191, #98 ) ;
#33 = FACE_OUTER_BOUND ( 'NONE', #299, .T. ) ;
#34 = FACE_OUTER_BOUND ( 'NONE', #290, .T. ) ;
#35 = FACE_OUTER_BOUND ( 'NONE', #304, .T. ) ;
#36 = FACE_OUTER_BOUND ( 'NONE', #303, .T. ) ;
#37 = VERTEX_POINT ( 'NONE', #71 ) ;
#38 = VERTEX_POINT ( 'NONE', #70 ) ;
#39 = VERTEX_POINT ( 'NONE', #72 ) ;
#40 = VERTEX_POINT ( 'NONE', #63 ) ;
#41 = ORGANIZATION ( 'UNSPECIFIED', 'UNSPECIFIED', '' ) ;
#42 = PERSON_AND_ORGANIZATION ( #235, #41 ) ;
#43 = PERSON_AND_ORGANIZATION ( #235, #41 ) ;
#44 = APPROVAL_PERSON_ORGANIZATION ( #43, #356, #86 ) ;
#45 = COORDINATED_UNIVERSAL_TIME_OFFSET ( 4, 0, .AHEAD. ) ;
#46 = LOCAL_TIME ( 15, 28, 2.000000000000000000, #45 ) ;
#47 = CALENDAR_DATE ( 2012, 15, 11 ) ;
#48 = DATE_AND_TIME ( #47, #46 ) ;
#49 = APPROVAL_DATE_TIME ( #48, #356 ) ;
#50 = PERSON_AND_ORGANIZATION ( #235, #41 ) ;
#51 = COORDINATED_UNIVERSAL_TIME_OFFSET ( 4, 0, .AHEAD. ) ;
#52 = LOCAL_TIME ( 15, 28, 2.000000000000000000, #51 ) ;
#53 = CALENDAR_DATE ( 2012, 15, 11 ) ;
#54 = DATE_AND_TIME ( #53, #52 ) ;
#55 = PERSON_AND_ORGANIZATION ( #235, #41 ) ;
#56 = APPROVAL_PERSON_ORGANIZATION ( #55, #351, #90 ) ;
#57 = COORDINATED_UNIVERSAL_TIME_OFFSET ( 4, 0, .AHEAD. ) ;
#58 = LOCAL_TIME ( 15, 28, 2.000000000000000000, #57 ) ;
#59 = CALENDAR_DATE ( 2012, 15, 11 ) ;
#60 = DATE_AND_TIME ( #59, #58 ) ;
#61 = DIRECTION ( 'NONE',  ( 0.0000000000000000000, 0.0000000000000000000, 1.000000000000000000 ) ) ;
#62 = CARTESIAN_POINT ( 'NONE',  ( 51.60000000000000100, 0.0000000000000000000, 341.0000000000000000 ) ) ;
#63 = CARTESIAN_POINT ( 'NONE',  ( 1.734723475976807100E-015, 0.0000000000000000000, 17.49999999999999600 ) ) ;
#64 = DIRECTION ( 'NONE',  ( 1.000000000000000000, 0.0000000000000000000, -0.0000000000000000000 ) ) ;
#65 = DIRECTION ( 'NONE',  ( -0.0000000000000000000, 0.0000000000000000000, -1.000000000000000000 ) ) ;
#66 = PLANE ( 'NONE',  #348 ) ;
#67 = CARTESIAN_POINT ( 'NONE',  ( 51.00000000000000000, 0.0000000000000000000, 341.0000000000000000 ) ) ;
#68 = DIRECTION ( 'NONE',  ( 1.000000000000000000, 0.0000000000000000000, -0.0000000000000000000 ) ) ;
#69 = DIRECTION ( 'NONE',  ( -0.0000000000000000000, 0.0000000000000000000, -1.000000000000000000 ) ) ;
#70 = CARTESIAN_POINT ( 'NONE',  ( 1.734723475976807100E-015, 0.5999999999999999800, 17.49999999999999600 ) ) ;
#71 = CARTESIAN_POINT ( 'NONE',  ( -8.162383766162926900E-016, 0.5999999999999999800, 323.5000000000000600 ) ) ;
#72 = CARTESIAN_POINT ( 'NONE',  ( -8.162383766162926900E-016, 0.0000000000000000000, 328.5000000000000600 ) ) ;
#73 = CARTESIAN_POINT ( 'NONE',  ( 0.0000000000000000000, 0.0000000000000000000, 0.0000000000000000000 ) ) ;
#74 = DIRECTION ( 'NONE',  ( 0.0000000000000000000, 0.0000000000000000000, 1.000000000000000000 ) ) ;
#75 =( LENGTH_UNIT ( ) NAMED_UNIT ( * ) SI_UNIT ( .MILLI., .METRE. ) );
#76 =( NAMED_UNIT ( * ) PLANE_ANGLE_UNIT ( ) SI_UNIT ( $, .RADIAN. ) );
#77 =( NAMED_UNIT ( * ) SI_UNIT ( $, .STERADIAN. ) SOLID_ANGLE_UNIT ( ) );
#78 = APPLICATION_PROTOCOL_DEFINITION ( 'international standard', 'config_control_design', 1994, #79 ) ;
#79 = APPLICATION_CONTEXT ( 'configuration controlled 3d designs of mechanical parts and assemblies' ) ;
#80 = DIRECTION ( 'NONE',  ( 1.000000000000000000, 0.0000000000000000000, 0.0000000000000000000 ) ) ;
#81 = MECHANICAL_CONTEXT ( 'NONE', #79, 'mechanical' ) ;
#82 = PERSON_AND_ORGANIZATION_ROLE ( 'design_owner' ) ;
#83 = APPLICATION_CONTEXT ( 'configuration controlled 3d designs of mechanical parts and assemblies' ) ;
#84 = APPLICATION_PROTOCOL_DEFINITION ( 'international standard', 'config_control_design', 1994, #83 ) ;
#85 = APPROVAL_STATUS ( 'not_yet_approved' ) ;
#86 = APPROVAL_ROLE ( '' ) ;
#87 = PERSON_AND_ORGANIZATION_ROLE ( 'creator' ) ;
#88 = DATE_TIME_ROLE ( 'creation_date' ) ;
#89 = APPROVAL_STATUS ( 'not_yet_approved' ) ;
#90 = APPROVAL_ROLE ( '' ) ;
#91 = PERSON_AND_ORGANIZATION_ROLE ( 'creator' ) ;
#92 = PERSON_AND_ORGANIZATION_ROLE ( 'design_supplier' ) ;
#93 = SECURITY_CLASSIFICATION_LEVEL ( 'unclassified' ) ;
#94 = PERSON_AND_ORGANIZATION_ROLE ( 'classification_officer' ) ;
#95 = DATE_TIME_ROLE ( 'classification_date' ) ;
#96 = APPROVAL_STATUS ( 'not_yet_approved' ) ;
#97 = APPROVAL_ROLE ( '' ) ;
#98 = ADVANCED_BREP_SHAPE_REPRESENTATION ( '¦¨v°úð ýð þªòõªòøªõû¹ T-þñ¨ð÷ývù òõ¨ªøúðû¹ývù TD_38302', ( #99, #355 ), #349 ) ;
#99 = MANIFOLD_SOLID_BREP ( 'Âûðåç-Âûòÿíóòü1', #276 ) ;
#100 = UNCERTAINTY_MEASURE_WITH_UNIT (LENGTH_MEASURE( 1.000000000000000100E-005 ), #75, 'distance_accuracy_value', 'NONE');
#101 = CARTESIAN_POINT ( 'NONE',  ( -51.60000000000000100, 0.5999999999999999800, 0.0000000000000000000 ) ) ;
#102 = DIRECTION ( 'NONE',  ( 0.0000000000000000000, 0.0000000000000000000, 1.000000000000000000 ) ) ;
#103 = PERSON_AND_ORGANIZATION ( #235, #41 ) ;
#104 = COORDINATED_UNIVERSAL_TIME_OFFSET ( 4, 0, .AHEAD. ) ;
#105 = LOCAL_TIME ( 15, 28, 2.000000000000000000, #104 ) ;
#106 = CALENDAR_DATE ( 2012, 15, 11 ) ;
#107 = DATE_AND_TIME ( #106, #105 ) ;
#108 = PERSON_AND_ORGANIZATION ( #235, #41 ) ;
#109 = APPROVAL_PERSON_ORGANIZATION ( #108, #333, #97 ) ;
#110 = COORDINATED_UNIVERSAL_TIME_OFFSET ( 4, 0, .AHEAD. ) ;
#111 = LOCAL_TIME ( 15, 28, 2.000000000000000000, #110 ) ;
#112 = CALENDAR_DATE ( 2012, 15, 11 ) ;
#113 = DATE_AND_TIME ( #112, #111 ) ;
#114 = APPROVAL_DATE_TIME ( #113, #333 ) ;
#115 = CARTESIAN_POINT ( 'NONE',  ( -8.162383766162926900E-016, 0.0000000000000000000, 326.0000000000000600 ) ) ;
#116 = ORIENTED_EDGE ( 'NONE', *, *, #281, .T. ) ;
#117 = ORIENTED_EDGE ( 'NONE', *, *, #252, .F. ) ;
#118 = ORIENTED_EDGE ( 'NONE', *, *, #258, .T. ) ;
#119 = ORIENTED_EDGE ( 'NONE', *, *, #262, .F. ) ;
#120 = ORIENTED_EDGE ( 'NONE', *, *, #255, .F. ) ;
#121 = ORIENTED_EDGE ( 'NONE', *, *, #261, .F. ) ;
#122 = ORIENTED_EDGE ( 'NONE', *, *, #253, .F. ) ;
#123 = ORIENTED_EDGE ( 'NONE', *, *, #259, .F. ) ;
#124 = ORIENTED_EDGE ( 'NONE', *, *, #254, .F. ) ;
#125 = ORIENTED_EDGE ( 'NONE', *, *, #250, .F. ) ;
#126 = ORIENTED_EDGE ( 'NONE', *, *, #256, .F. ) ;
#127 = ORIENTED_EDGE ( 'NONE', *, *, #252, .T. ) ;
#128 = ORIENTED_EDGE ( 'NONE', *, *, #247, .F. ) ;
#129 = ORIENTED_EDGE ( 'NONE', *, *, #274, .F. ) ;
#130 = ORIENTED_EDGE ( 'NONE', *, *, #271, .T. ) ;
#131 = ORIENTED_EDGE ( 'NONE', *, *, #255, .T. ) ;
#132 = ORIENTED_EDGE ( 'NONE', *, *, #246, .T. ) ;
#133 = ORIENTED_EDGE ( 'NONE', *, *, #261, .T. ) ;
#134 = ORIENTED_EDGE ( 'NONE', *, *, #251, .F. ) ;
#135 = ORIENTED_EDGE ( 'NONE', *, *, #248, .T. ) ;
#136 = ORIENTED_EDGE ( 'NONE', *, *, #246, .F. ) ;
#137 = ORIENTED_EDGE ( 'NONE', *, *, #291, .F. ) ;
#138 = ORIENTED_EDGE ( 'NONE', *, *, #260, .T. ) ;
#139 = ORIENTED_EDGE ( 'NONE', *, *, #278, .T. ) ;
#140 = ORIENTED_EDGE ( 'NONE', *, *, #258, .F. ) ;
#141 = ORIENTED_EDGE ( 'NONE', *, *, #244, .F. ) ;
#142 = ORIENTED_EDGE ( 'NONE', *, *, #259, .T. ) ;
#143 = ORIENTED_EDGE ( 'NONE', *, *, #249, .F. ) ;
#144 = ORIENTED_EDGE ( 'NONE', *, *, #264, .F. ) ;
#145 = ORIENTED_EDGE ( 'NONE', *, *, #281, .F. ) ;
#146 = ORIENTED_EDGE ( 'NONE', *, *, #287, .T. ) ;
#147 = ORIENTED_EDGE ( 'NONE', *, *, #284, .T. ) ;
#148 = LINE ( 'NONE', #224, #155 ) ;
#149 = LINE ( 'NONE', #216, #150 ) ;
#150 = VECTOR ( 'NONE', #202, 1000.000000000000000 ) ;
#151 = LINE ( 'NONE', #225, #157 ) ;
#152 = LINE ( 'NONE', #233, #153 ) ;
#153 = VECTOR ( 'NONE', #232, 1000.000000000000000 ) ;
#154 = LINE ( 'NONE', #194, #167 ) ;
#155 = VECTOR ( 'NONE', #219, 1000.000000000000000 ) ;
#156 = LINE ( 'NONE', #211, #159 ) ;
#157 = VECTOR ( 'NONE', #208, 1000.000000000000000 ) ;
#158 = CIRCLE ( 'NONE', #243, 2.500000000000002200 ) ;
#159 = VECTOR ( 'NONE', #206, 1000.000000000000000 ) ;
#160 = LINE ( 'NONE', #213, #164 ) ;
#161 = LINE ( 'NONE', #231, #163 ) ;
#162 = CIRCLE ( 'NONE', #242, 2.500000000000002200 ) ;
#163 = VECTOR ( 'NONE', #200, 1000.000000000000000 ) ;
#164 = VECTOR ( 'NONE', #195, 1000.000000000000000 ) ;
#165 = LINE ( 'NONE', #230, #169 ) ;
#166 = LINE ( 'NONE', #193, #173 ) ;
#167 = VECTOR ( 'NONE', #199, 1000.000000000000000 ) ;
#168 = LINE ( 'NONE', #201, #171 ) ;
#169 = VECTOR ( 'NONE', #226, 1000.000000000000000 ) ;
#170 = LINE ( 'NONE', #227, #179 ) ;
#171 = VECTOR ( 'NONE', #204, 1000.000000000000000 ) ;
#172 = LINE ( 'NONE', #215, #175 ) ;
#173 = VECTOR ( 'NONE', #203, 1000.000000000000000 ) ;
#174 = LINE ( 'NONE', #218, #177 ) ;
#175 = VECTOR ( 'NONE', #220, 1000.000000000000000 ) ;
#176 = LINE ( 'NONE', #205, #185 ) ;
#177 = VECTOR ( 'NONE', #222, 1000.000000000000000 ) ;
#178 = LINE ( 'NONE', #223, #181 ) ;
#179 = VECTOR ( 'NONE', #221, 1000.000000000000000 ) ;
#180 = LINE ( 'NONE', #207, #183 ) ;
#181 = VECTOR ( 'NONE', #209, 1000.000000000000000 ) ;
#182 = CIRCLE ( 'NONE', #241, 2.500000000000002200 ) ;
#183 = VECTOR ( 'NONE', #212, 1000.000000000000000 ) ;
#184 = APPROVAL_DATE_TIME ( #60, #351 ) ;
#185 = VECTOR ( 'NONE', #210, 1000.000000000000000 ) ;
#186 = PERSON_AND_ORGANIZATION ( #235, #41 ) ;
#187 = CIRCLE ( 'NONE', #240, 2.500000000000002200 ) ;
#188 = ORIENTED_EDGE ( 'NONE', *, *, #262, .T. ) ;
#189 = ORIENTED_EDGE ( 'NONE', *, *, #256, .T. ) ;
#190 = DESIGN_CONTEXT ( 'detailed design', #83, 'design' ) ;
#191 = PRODUCT_DEFINITION_SHAPE ( 'NONE', 'NONE',  #358 ) ;
#192 = DIRECTION ( 'NONE',  ( 0.0000000000000000000, 0.0000000000000000000, -1.000000000000000000 ) ) ;
#193 = CARTESIAN_POINT ( 'NONE',  ( -51.60000000000000100, 0.0000000000000000000, 341.0000000000000000 ) ) ;
#194 = CARTESIAN_POINT ( 'NONE',  ( -51.00000000000000000, 0.5999999999999999800, 341.0000000000000000 ) ) ;
#195 = DIRECTION ( 'NONE',  ( 1.000000000000000000, 0.0000000000000000000, 0.0000000000000000000 ) ) ;
#196 = DIRECTION ( 'NONE',  ( 0.0000000000000000000, 0.0000000000000000000, 1.000000000000000000 ) ) ;
#197 = DIRECTION ( 'NONE',  ( 0.0000000000000000000, 1.000000000000000000, 0.0000000000000000000 ) ) ;
#198 = CARTESIAN_POINT ( 'NONE',  ( 1.734723475976807100E-015, 0.5999999999999999800, 14.99999999999999300 ) ) ;
#199 = DIRECTION ( 'NONE',  ( 1.000000000000000000, 0.0000000000000000000, 0.0000000000000000000 ) ) ;
#200 = DIRECTION ( 'NONE',  ( -0.0000000000000000000, -0.0000000000000000000, -1.000000000000000000 ) ) ;
#201 = CARTESIAN_POINT ( 'NONE',  ( -51.60000000000000100, -14.00000000000000000, 341.0000000000000000 ) ) ;
#202 = DIRECTION ( 'NONE',  ( -1.000000000000000000, 0.0000000000000000000, 0.0000000000000000000 ) ) ;
#203 = DIRECTION ( 'NONE',  ( 0.0000000000000000000, 1.000000000000000000, 0.0000000000000000000 ) ) ;
#204 = DIRECTION ( 'NONE',  ( -0.0000000000000000000, -0.0000000000000000000, -1.000000000000000000 ) ) ;
#205 = CARTESIAN_POINT ( 'NONE',  ( -51.00000000000000000, 0.0000000000000000000, 341.0000000000000000 ) ) ;
#206 = DIRECTION ( 'NONE',  ( -0.0000000000000000000, -1.000000000000000000, 0.0000000000000000000 ) ) ;
#207 = CARTESIAN_POINT ( 'NONE',  ( -51.00000000000000000, 0.0000000000000000000, 341.0000000000000000 ) ) ;
#208 = DIRECTION ( 'NONE',  ( -0.0000000000000000000, -1.000000000000000000, 0.0000000000000000000 ) ) ;
#209 = DIRECTION ( 'NONE',  ( -0.0000000000000000000, 1.000000000000000000, -0.0000000000000000000 ) ) ;
#210 = DIRECTION ( 'NONE',  ( -0.0000000000000000000, 1.000000000000000000, -0.0000000000000000000 ) ) ;
#211 = CARTESIAN_POINT ( 'NONE',  ( 51.60000000000000100, 0.0000000000000000000, 341.0000000000000000 ) ) ;
#212 = DIRECTION ( 'NONE',  ( -0.0000000000000000000, -0.0000000000000000000, -1.000000000000000000 ) ) ;
#213 = CARTESIAN_POINT ( 'NONE',  ( -51.00000000000000000, 0.5999999999999999800, 0.0000000000000000000 ) ) ;
#214 = CARTESIAN_POINT ( 'NONE',  ( -51.60000000000000100, -14.00000000000000000, 341.0000000000000000 ) ) ;
#215 = CARTESIAN_POINT ( 'NONE',  ( -51.00000000000000000, -14.00000000000000000, 0.0000000000000000000 ) ) ;
#216 = CARTESIAN_POINT ( 'NONE',  ( 51.60000000000000100, -14.00000000000000000, 0.0000000000000000000 ) ) ;
#217 = CARTESIAN_POINT ( 'NONE',  ( -51.60000000000000100, -14.00000000000000000, 0.0000000000000000000 ) ) ;
#218 = CARTESIAN_POINT ( 'NONE',  ( -51.00000000000000000, -14.00000000000000000, 341.0000000000000000 ) ) ;
#219 = DIRECTION ( 'NONE',  ( -1.000000000000000000, 0.0000000000000000000, 0.0000000000000000000 ) ) ;
#220 = DIRECTION ( 'NONE',  ( -1.000000000000000000, 0.0000000000000000000, 0.0000000000000000000 ) ) ;
#221 = DIRECTION ( 'NONE',  ( -1.000000000000000000, 0.0000000000000000000, 0.0000000000000000000 ) ) ;
#222 = DIRECTION ( 'NONE',  ( -0.0000000000000000000, -0.0000000000000000000, -1.000000000000000000 ) ) ;
#223 = CARTESIAN_POINT ( 'NONE',  ( -51.00000000000000000, 0.0000000000000000000, 0.0000000000000000000 ) ) ;
#224 = CARTESIAN_POINT ( 'NONE',  ( 51.60000000000000100, -14.00000000000000000, 341.0000000000000000 ) ) ;
#225 = CARTESIAN_POINT ( 'NONE',  ( 51.60000000000000100, 0.0000000000000000000, 0.0000000000000000000 ) ) ;
#226 = DIRECTION ( 'NONE',  ( 0.0000000000000000000, 1.000000000000000000, 0.0000000000000000000 ) ) ;
#227 = CARTESIAN_POINT ( 'NONE',  ( -51.00000000000000000, -14.00000000000000000, 341.0000000000000000 ) ) ;
#228 = DIRECTION ( 'NONE',  ( -0.0000000000000000000, 1.000000000000000000, -0.0000000000000000000 ) ) ;
#229 = CARTESIAN_POINT ( 'NONE',  ( -8.162383766162926900E-016, 0.5999999999999999800, 326.0000000000000600 ) ) ;
#230 = CARTESIAN_POINT ( 'NONE',  ( -51.60000000000000100, 0.0000000000000000000, 0.0000000000000000000 ) ) ;
#231 = CARTESIAN_POINT ( 'NONE',  ( -51.60000000000000100, 0.5999999999999999800, 341.0000000000000000 ) ) ;
#232 = DIRECTION ( 'NONE',  ( -0.0000000000000000000, -0.0000000000000000000, -1.000000000000000000 ) ) ;
#233 = CARTESIAN_POINT ( 'NONE',  ( 51.60000000000000100, -14.00000000000000000, 341.0000000000000000 ) ) ;
#234 = PRODUCT ( 'Êðûøêà íà îòâåòâèòåëü Ò-îáðàçíûé âåðòèêàëüíûé TD_38302', 'Êðûøêà íà îòâåòâèòåëü Ò-îáðàçíûé âåðòèêàëüíûé TD_38302', '', ( #81 ) ) ;
#235 = PERSON ( 'UNSPECIFIED', 'UNSPECIFIED', 'UNSPECIFIED', ('UNSPECIFIED'), ('UNSPECIFIED'), ('UNSPECIFIED') ) ;
#236 = DIRECTION ( 'NONE',  ( -0.0000000000000000000, -1.000000000000000000, -0.0000000000000000000 ) ) ;
#237 = AXIS2_PLACEMENT_3D ( 'NONE', #392, #397, #398 ) ;
#238 = AXIS2_PLACEMENT_3D ( 'NONE', #390, #394, #395 ) ;
#239 = AXIS2_PLACEMENT_3D ( 'NONE', #388, #386, #387 ) ;
#240 = AXIS2_PLACEMENT_3D ( 'NONE', #362, #363, #364 ) ;
#241 = AXIS2_PLACEMENT_3D ( 'NONE', #115, #236, #102 ) ;
#242 = AXIS2_PLACEMENT_3D ( 'NONE', #198, #197, #196 ) ;
#243 = AXIS2_PLACEMENT_3D ( 'NONE', #229, #228, #192 ) ;
#244 = EDGE_CURVE ( 'NONE', #282, #288, #149, .T. ) ;
#245 = EDGE_CURVE ( 'NONE', #280, #282, #152, .T. ) ;
#246 = EDGE_CURVE ( 'NONE', #280, #286, #148, .T. ) ;
#247 = EDGE_CURVE ( 'NONE', #265, #282, #151, .T. ) ;
#248 = EDGE_CURVE ( 'NONE', #270, #280, #156, .T. ) ;
#249 = EDGE_CURVE ( 'NONE', #37, #37, #158, .T. ) ;
#250 = EDGE_CURVE ( 'NONE', #38, #38, #162, .T. ) ;
#251 = EDGE_CURVE ( 'NONE', #267, #265, #160, .T. ) ;
#252 = EDGE_CURVE ( 'NONE', #277, #267, #161, .T. ) ;
#253 = EDGE_CURVE ( 'NONE', #277, #270, #154, .T. ) ;
#254 = EDGE_CURVE ( 'NONE', #266, #267, #165, .T. ) ;
#255 = EDGE_CURVE ( 'NONE', #263, #266, #168, .T. ) ;
#256 = EDGE_CURVE ( 'NONE', #263, #277, #166, .T. ) ;
#257 = EDGE_CURVE ( 'NONE', #279, #266, #172, .T. ) ;
#258 = EDGE_CURVE ( 'NONE', #273, #279, #174, .T. ) ;
#259 = EDGE_CURVE ( 'NONE', #273, #263, #170, .T. ) ;
#260 = EDGE_CURVE ( 'NONE', #279, #285, #178, .T. ) ;
#261 = EDGE_CURVE ( 'NONE', #275, #285, #180, .T. ) ;
#262 = EDGE_CURVE ( 'NONE', #273, #275, #176, .T. ) ;
#263 = VERTEX_POINT ( 'NONE', #214 ) ;
#265 = VERTEX_POINT ( 'NONE', #1 ) ;
#264 = EDGE_CURVE ( 'NONE', #39, #39, #182, .T. ) ;
#266 = VERTEX_POINT ( 'NONE', #217 ) ;
#267 = VERTEX_POINT ( 'NONE', #101 ) ;
#268 = EDGE_CURVE ( 'NONE', #40, #40, #187, .T. ) ;
#269 = PERSON_AND_ORGANIZATION ( #235, #41 ) ;
#270 = VERTEX_POINT ( 'NONE', #359 ) ;
#271 = EDGE_CURVE ( 'NONE', #285, #272, #4, .T. ) ;
#272 = VERTEX_POINT ( 'NONE', #361 ) ;
#273 = VERTEX_POINT ( 'NONE', #365 ) ;
#274 = EDGE_CURVE ( 'NONE', #275, #283, #2, .T. ) ;
#275 = VERTEX_POINT ( 'NONE', #368 ) ;
#276 = CLOSED_SHELL ( 'NONE', ( #436, #426, #435, #430, #434, #431, #427, #428, #433, #432, #425, #429 ) ) ;
#277 = VERTEX_POINT ( 'NONE', #369 ) ;
#278 = EDGE_CURVE ( 'NONE', #286, #288, #9, .T. ) ;
#279 = VERTEX_POINT ( 'NONE', #372 ) ;
#280 = VERTEX_POINT ( 'NONE', #373 ) ;
#281 = EDGE_CURVE ( 'NONE', #283, #286, #3, .T. ) ;
#282 = VERTEX_POINT ( 'NONE', #376 ) ;
#283 = VERTEX_POINT ( 'NONE', #377 ) ;
#284 = EDGE_CURVE ( 'NONE', #283, #272, #14, .T. ) ;
#285 = VERTEX_POINT ( 'NONE', #381 ) ;
#286 = VERTEX_POINT ( 'NONE', #383 ) ;
#288 = VERTEX_POINT ( 'NONE', #384 ) ;
#287 = EDGE_CURVE ( 'NONE', #272, #288, #6, .T. ) ;
#289 = EDGE_LOOP ( 'NONE', ( #144 ) ) ;
#290 = EDGE_LOOP ( 'NONE', ( #124, #120, #189, #127 ) ) ;
#291 = EDGE_CURVE ( 'NONE', #270, #265, #13, .T. ) ;
#292 = EDGE_LOOP ( 'NONE', ( #319 ) ) ;
#293 = EDGE_LOOP ( 'NONE', ( #318 ) ) ;
#294 = EDGE_LOOP ( 'NONE', ( #316 ) ) ;
#295 = EDGE_LOOP ( 'NONE', ( #317 ) ) ;
#296 = EDGE_LOOP ( 'NONE', ( #130, #320, #129, #133 ) ) ;
#297 = EDGE_LOOP ( 'NONE', ( #325, #140, #142, #131 ) ) ;
#298 = EDGE_LOOP ( 'NONE', ( #138, #121, #119, #118 ) ) ;
#299 = EDGE_LOOP ( 'NONE', ( #116, #136, #323, #122, #126, #123, #188, #308 ) ) ;
#300 = EDGE_LOOP ( 'NONE', ( #324 ) ) ;
#301 = EDGE_LOOP ( 'NONE', ( #310, #309, #311, #313, #314, #315, #312, #321 ) ) ;
#302 = EDGE_LOOP ( 'NONE', ( #143 ) ) ;
#303 = EDGE_LOOP ( 'NONE', ( #146, #327, #145, #147 ) ) ;
#304 = EDGE_LOOP ( 'NONE', ( #128, #137, #135, #328 ) ) ;
#305 = EDGE_LOOP ( 'NONE', ( #134, #117, #329, #326 ) ) ;
#306 = EDGE_LOOP ( 'NONE', ( #125 ) ) ;
#307 = EDGE_LOOP ( 'NONE', ( #141, #322, #132, #139 ) ) ;
#308 = ORIENTED_EDGE ( 'NONE', *, *, #274, .T. ) ;
#309 = ORIENTED_EDGE ( 'NONE', *, *, #271, .F. ) ;
#310 = ORIENTED_EDGE ( 'NONE', *, *, #287, .F. ) ;
#311 = ORIENTED_EDGE ( 'NONE', *, *, #260, .F. ) ;
#312 = ORIENTED_EDGE ( 'NONE', *, *, #247, .T. ) ;
#313 = ORIENTED_EDGE ( 'NONE', *, *, #257, .T. ) ;
#314 = ORIENTED_EDGE ( 'NONE', *, *, #254, .T. ) ;
#315 = ORIENTED_EDGE ( 'NONE', *, *, #251, .T. ) ;
#316 = ORIENTED_EDGE ( 'NONE', *, *, #264, .T. ) ;
#317 = ORIENTED_EDGE ( 'NONE', *, *, #249, .T. ) ;
#318 = ORIENTED_EDGE ( 'NONE', *, *, #250, .T. ) ;
#319 = ORIENTED_EDGE ( 'NONE', *, *, #268, .T. ) ;
#320 = ORIENTED_EDGE ( 'NONE', *, *, #284, .F. ) ;
#321 = ORIENTED_EDGE ( 'NONE', *, *, #244, .T. ) ;
#322 = ORIENTED_EDGE ( 'NONE', *, *, #245, .F. ) ;
#323 = ORIENTED_EDGE ( 'NONE', *, *, #248, .F. ) ;
#324 = ORIENTED_EDGE ( 'NONE', *, *, #268, .F. ) ;
#325 = ORIENTED_EDGE ( 'NONE', *, *, #257, .F. ) ;
#326 = ORIENTED_EDGE ( 'NONE', *, *, #291, .T. ) ;
#327 = ORIENTED_EDGE ( 'NONE', *, *, #278, .F. ) ;
#328 = ORIENTED_EDGE ( 'NONE', *, *, #245, .T. ) ;
#329 = ORIENTED_EDGE ( 'NONE', *, *, #253, .T. ) ;
#330 = CC_DESIGN_PERSON_AND_ORGANIZATION_ASSIGNMENT ( #42, #82, ( #234 ) ) ;
#331 = CC_DESIGN_SECURITY_CLASSIFICATION ( #338, ( #353 ) ) ;
#332 = PRODUCT_RELATED_PRODUCT_CATEGORY ( 'detail', '', ( #234 ) ) ;
#333 = APPROVAL ( #96, 'UNSPECIFIED' ) ;
#334 = CC_DESIGN_APPROVAL ( #333, ( #338 ) ) ;
#335 = CC_DESIGN_PERSON_AND_ORGANIZATION_ASSIGNMENT ( #103, #94, ( #338 ) ) ;
#336 = CC_DESIGN_DATE_AND_TIME_ASSIGNMENT ( #107, #95, ( #338 ) ) ;
#337 = CC_DESIGN_PERSON_AND_ORGANIZATION_ASSIGNMENT ( #269, #92, ( #353 ) ) ;
#338 = SECURITY_CLASSIFICATION ( '', '', #93 ) ;
#339 = CC_DESIGN_APPROVAL ( #351, ( #353 ) ) ;
#340 = CC_DESIGN_PERSON_AND_ORGANIZATION_ASSIGNMENT ( #186, #91, ( #353 ) ) ;
#341 = AXIS2_PLACEMENT_3D ( 'NONE', #409, #413, #414 ) ;
#342 = AXIS2_PLACEMENT_3D ( 'NONE', #404, #400, #402 ) ;
#343 = AXIS2_PLACEMENT_3D ( 'NONE', #399, #393, #403 ) ;
#344 = AXIS2_PLACEMENT_3D ( 'NONE', #406, #405, #410 ) ;
#345 = AXIS2_PLACEMENT_3D ( 'NONE', #412, #421, #422 ) ;
#346 = AXIS2_PLACEMENT_3D ( 'NONE', #407, #417, #418 ) ;
#347 = AXIS2_PLACEMENT_3D ( 'NONE', #416, #424, #61 ) ;
#348 = AXIS2_PLACEMENT_3D ( 'NONE', #67, #68, #69 ) ;
#349 =( GEOMETRIC_REPRESENTATION_CONTEXT ( 3 ) GLOBAL_UNCERTAINTY_ASSIGNED_CONTEXT ( ( #100 ) ) GLOBAL_UNIT_ASSIGNED_CONTEXT ( ( #75, #76, #77 ) ) REPRESENTATION_CONTEXT ( 'NONE', 'WORKASPACE' ) );
#350 = AXIS2_PLACEMENT_3D ( 'NONE', #62, #64, #65 ) ;
#351 = APPROVAL ( #89, 'UNSPECIFIED' ) ;
#352 = CC_DESIGN_DATE_AND_TIME_ASSIGNMENT ( #54, #88, ( #358 ) ) ;
#353 = PRODUCT_DEFINITION_FORMATION_WITH_SPECIFIED_SOURCE ( 'ANY', '', #234, .NOT_KNOWN. ) ;
#354 = CC_DESIGN_PERSON_AND_ORGANIZATION_ASSIGNMENT ( #50, #87, ( #358 ) ) ;
#355 = AXIS2_PLACEMENT_3D ( 'NONE', #73, #74, #80 ) ;
#356 = APPROVAL ( #85, 'UNSPECIFIED' ) ;
#357 = CC_DESIGN_APPROVAL ( #356, ( #358 ) ) ;
#358 = PRODUCT_DEFINITION ( 'UNKNOWN', '', #353, #190 ) ;
#359 = CARTESIAN_POINT ( 'NONE',  ( 51.60000000000000100, 0.5999999999999999800, 341.0000000000000000 ) ) ;
#360 = DIRECTION ( 'NONE',  ( 1.000000000000000000, 0.0000000000000000000, 0.0000000000000000000 ) ) ;
#361 = CARTESIAN_POINT ( 'NONE',  ( 51.00000000000000000, 0.0000000000000000000, 0.0000000000000000000 ) ) ;
#362 = CARTESIAN_POINT ( 'NONE',  ( 1.734723475976807100E-015, 0.0000000000000000000, 14.99999999999999300 ) ) ;
#363 = DIRECTION ( 'NONE',  ( -0.0000000000000000000, -1.000000000000000000, -0.0000000000000000000 ) ) ;
#364 = DIRECTION ( 'NONE',  ( 0.0000000000000000000, 0.0000000000000000000, 1.000000000000000000 ) ) ;
#365 = CARTESIAN_POINT ( 'NONE',  ( -51.00000000000000000, -14.00000000000000000, 341.0000000000000000 ) ) ;
#366 = DIRECTION ( 'NONE',  ( 1.000000000000000000, 0.0000000000000000000, 0.0000000000000000000 ) ) ;
#367 = CARTESIAN_POINT ( 'NONE',  ( -51.00000000000000000, 0.0000000000000000000, 341.0000000000000000 ) ) ;
#368 = CARTESIAN_POINT ( 'NONE',  ( -51.00000000000000000, 0.0000000000000000000, 341.0000000000000000 ) ) ;
#369 = CARTESIAN_POINT ( 'NONE',  ( -51.60000000000000100, 0.5999999999999999800, 341.0000000000000000 ) ) ;
#370 = DIRECTION ( 'NONE',  ( -0.0000000000000000000, -0.0000000000000000000, -1.000000000000000000 ) ) ;
#371 = CARTESIAN_POINT ( 'NONE',  ( 51.00000000000000000, -14.00000000000000000, 341.0000000000000000 ) ) ;
#372 = CARTESIAN_POINT ( 'NONE',  ( -51.00000000000000000, -14.00000000000000000, 0.0000000000000000000 ) ) ;
#373 = CARTESIAN_POINT ( 'NONE',  ( 51.60000000000000100, -14.00000000000000000, 341.0000000000000000 ) ) ;
#374 = DIRECTION ( 'NONE',  ( 0.0000000000000000000, -1.000000000000000000, 0.0000000000000000000 ) ) ;
#375 = CARTESIAN_POINT ( 'NONE',  ( 51.00000000000000000, 0.0000000000000000000, 341.0000000000000000 ) ) ;
#376 = CARTESIAN_POINT ( 'NONE',  ( 51.60000000000000100, -14.00000000000000000, 0.0000000000000000000 ) ) ;
#377 = CARTESIAN_POINT ( 'NONE',  ( 51.00000000000000000, 0.0000000000000000000, 341.0000000000000000 ) ) ;
#378 = DIRECTION ( 'NONE',  ( -0.0000000000000000000, -0.0000000000000000000, -1.000000000000000000 ) ) ;
#379 = CARTESIAN_POINT ( 'NONE',  ( 51.00000000000000000, 0.0000000000000000000, 341.0000000000000000 ) ) ;
#380 = CARTESIAN_POINT ( 'NONE',  ( 51.00000000000000000, 0.0000000000000000000, 0.0000000000000000000 ) ) ;
#381 = CARTESIAN_POINT ( 'NONE',  ( -51.00000000000000000, 0.0000000000000000000, 0.0000000000000000000 ) ) ;
#382 = DIRECTION ( 'NONE',  ( 0.0000000000000000000, -1.000000000000000000, 0.0000000000000000000 ) ) ;
#383 = CARTESIAN_POINT ( 'NONE',  ( 51.00000000000000000, -14.00000000000000000, 341.0000000000000000 ) ) ;
#384 = CARTESIAN_POINT ( 'NONE',  ( 51.00000000000000000, -14.00000000000000000, 0.0000000000000000000 ) ) ;
#385 = CARTESIAN_POINT ( 'NONE',  ( 51.60000000000000100, 0.5999999999999999800, 341.0000000000000000 ) ) ;
#386 = DIRECTION ( 'NONE',  ( -0.0000000000000000000, 1.000000000000000000, -0.0000000000000000000 ) ) ;
#387 = DIRECTION ( 'NONE',  ( 0.0000000000000000000, 0.0000000000000000000, 1.000000000000000000 ) ) ;
#388 = CARTESIAN_POINT ( 'NONE',  ( 1.734723475976807100E-015, -14.00099999999999900, 14.99999999999999300 ) ) ;
#389 = DIRECTION ( 'NONE',  ( -0.0000000000000000000, -0.0000000000000000000, -1.000000000000000000 ) ) ;
#390 = CARTESIAN_POINT ( 'NONE',  ( 51.60000000000000100, -14.00000000000000000, 341.0000000000000000 ) ) ;
#391 = PLANE ( 'NONE',  #238 ) ;
#392 = CARTESIAN_POINT ( 'NONE',  ( -51.00000000000000000, 0.0000000000000000000, 341.0000000000000000 ) ) ;
#393 = DIRECTION ( 'NONE',  ( 0.0000000000000000000, 1.000000000000000000, 0.0000000000000000000 ) ) ;
#394 = DIRECTION ( 'NONE',  ( 0.0000000000000000000, -1.000000000000000000, 0.0000000000000000000 ) ) ;
#395 = DIRECTION ( 'NONE',  ( 0.0000000000000000000, -0.0000000000000000000, -1.000000000000000000 ) ) ;
#396 = PLANE ( 'NONE',  #237 ) ;
#397 = DIRECTION ( 'NONE',  ( -1.000000000000000000, 0.0000000000000000000, 0.0000000000000000000 ) ) ;
#398 = DIRECTION ( 'NONE',  ( 0.0000000000000000000, 0.0000000000000000000, 1.000000000000000000 ) ) ;
#399 = CARTESIAN_POINT ( 'NONE',  ( -51.00000000000000000, 0.0000000000000000000, 341.0000000000000000 ) ) ;
#400 = DIRECTION ( 'NONE',  ( -0.0000000000000000000, 1.000000000000000000, -0.0000000000000000000 ) ) ;
#401 = PLANE ( 'NONE',  #343 ) ;
#402 = DIRECTION ( 'NONE',  ( 0.0000000000000000000, 0.0000000000000000000, 1.000000000000000000 ) ) ;
#403 = DIRECTION ( 'NONE',  ( 0.0000000000000000000, -0.0000000000000000000, 1.000000000000000000 ) ) ;
#404 = CARTESIAN_POINT ( 'NONE',  ( -8.162383766162926900E-016, -14.00099999999999900, 326.0000000000000600 ) ) ;
#405 = DIRECTION ( 'NONE',  ( 0.0000000000000000000, 1.000000000000000000, 0.0000000000000000000 ) ) ;
#406 = CARTESIAN_POINT ( 'NONE',  ( -51.00000000000000000, 0.5999999999999999800, 341.0000000000000000 ) ) ;
#407 = CARTESIAN_POINT ( 'NONE',  ( 0.0000000000000000000, 0.0000000000000000000, 0.0000000000000000000 ) ) ;
#408 = PLANE ( 'NONE',  #344 ) ;
#409 = CARTESIAN_POINT ( 'NONE',  ( -51.00000000000000000, -14.00000000000000000, 341.0000000000000000 ) ) ;
#410 = DIRECTION ( 'NONE',  ( 0.0000000000000000000, -0.0000000000000000000, 1.000000000000000000 ) ) ;
#411 = PLANE ( 'NONE',  #341 ) ;
#412 = CARTESIAN_POINT ( 'NONE',  ( 0.0000000000000000000, 0.0000000000000000000, 341.0000000000000000 ) ) ;
#413 = DIRECTION ( 'NONE',  ( 0.0000000000000000000, -1.000000000000000000, 0.0000000000000000000 ) ) ;
#414 = DIRECTION ( 'NONE',  ( 0.0000000000000000000, -0.0000000000000000000, -1.000000000000000000 ) ) ;
#415 = PLANE ( 'NONE',  #346 ) ;
#416 = CARTESIAN_POINT ( 'NONE',  ( -51.60000000000000100, 0.0000000000000000000, 341.0000000000000000 ) ) ;
#417 = DIRECTION ( 'NONE',  ( -0.0000000000000000000, 0.0000000000000000000, -1.000000000000000000 ) ) ;
#418 = DIRECTION ( 'NONE',  ( -1.000000000000000000, 0.0000000000000000000, 0.0000000000000000000 ) ) ;
#419 = PLANE ( 'NONE',  #345 ) ;
#420 = PLANE ( 'NONE',  #350 ) ;
#421 = DIRECTION ( 'NONE',  ( -0.0000000000000000000, 0.0000000000000000000, -1.000000000000000000 ) ) ;
#422 = DIRECTION ( 'NONE',  ( -1.000000000000000000, 0.0000000000000000000, 0.0000000000000000000 ) ) ;
#423 = PLANE ( 'NONE',  #347 ) ;
#424 = DIRECTION ( 'NONE',  ( -1.000000000000000000, 0.0000000000000000000, 0.0000000000000000000 ) ) ;
#425 = ADVANCED_FACE ( 'NONE', ( #19, #18 ), #22, .F. ) ;
#426 = ADVANCED_FACE ( 'NONE', ( #8 ), #391, .T. ) ;
#427 = ADVANCED_FACE ( 'NONE', ( #20 ), #396, .F. ) ;
#428 = ADVANCED_FACE ( 'NONE', ( #16, #25, #23 ), #401, .F. ) ;
#429 = ADVANCED_FACE ( 'NONE', ( #24, #28 ), #30, .F. ) ;
#430 = ADVANCED_FACE ( 'NONE', ( #26, #31, #21 ), #408, .T. ) ;
#431 = ADVANCED_FACE ( 'NONE', ( #27 ), #411, .T. ) ;
#432 = ADVANCED_FACE ( 'NONE', ( #29 ), #415, .T. ) ;
#433 = ADVANCED_FACE ( 'NONE', ( #33 ), #419, .F. ) ;
#434 = ADVANCED_FACE ( 'NONE', ( #34 ), #423, .T. ) ;
#435 = ADVANCED_FACE ( 'NONE', ( #35 ), #420, .T. ) ;
#436 = ADVANCED_FACE ( 'NONE', ( #36 ), #66, .F. ) ;
#437 = CARTESIAN_POINT ( 'NONE',  ( -51.00000000000000000, 0.0000000000000000000, 0.0000000000000000000 ) ) ;
ENDSEC;
END-ISO-10303-21;
