ISO-10303-21;
HEADER;
FILE_DESCRIPTION (( 'STEP AP203' ),
    '1' );
FILE_NAME ('Êðûøêà íà îòâåòâèòåëü Ò-îáðàçíûé âåðòèêàëüíûé TDSA_38386.STEP',
    '2012-11-09T08:44:19',
    ( 'Àñååâ' ),
    ( '' ),
    'SwSTEP 2.0',
    'SolidWorks 2012',
    '' );
FILE_SCHEMA (( 'CONFIG_CONTROL_DESIGN' ));
ENDSEC;

DATA;
#1 = CARTESIAN_POINT ( 'NONE',  ( 0.0000000000000000000, 0.5999999999999999800, 442.5000000000000600 ) ) ;
#2 = CARTESIAN_POINT ( 'NONE',  ( 1.734723475976807100E-015, 0.5999999999999999800, 17.49999999999999600 ) ) ;
#3 = DIRECTION ( 'NONE',  ( 0.0000000000000000000, -0.0000000000000000000, -1.000000000000000000 ) ) ;
#4 = DIRECTION ( 'NONE',  ( 0.0000000000000000000, -1.000000000000000000, 0.0000000000000000000 ) ) ;
#5 = PLANE ( 'NONE',  #187 ) ;
#6 = DIRECTION ( 'NONE',  ( 0.0000000000000000000, 0.0000000000000000000, 1.000000000000000000 ) ) ;
#7 = DIRECTION ( 'NONE',  ( -1.000000000000000000, 0.0000000000000000000, 0.0000000000000000000 ) ) ;
#8 = CARTESIAN_POINT ( 'NONE',  ( 1.734723475976807100E-015, 0.0000000000000000000, 17.49999999999999600 ) ) ;
#9 = PLANE ( 'NONE',  #183 ) ;
#10 = DIRECTION ( 'NONE',  ( 0.0000000000000000000, -0.0000000000000000000, -1.000000000000000000 ) ) ;
#11 = DIRECTION ( 'NONE',  ( 0.0000000000000000000, -1.000000000000000000, 0.0000000000000000000 ) ) ;
#12 = CARTESIAN_POINT ( 'NONE',  ( -51.00000000000000000, -14.00000000000000000, 460.0000000000000000 ) ) ;
#13 = PLANE ( 'NONE',  #172 ) ;
#14 = DIRECTION ( 'NONE',  ( -0.0000000000000000000, 0.0000000000000000000, -1.000000000000000000 ) ) ;
#15 = DIRECTION ( 'NONE',  ( 1.000000000000000000, 0.0000000000000000000, -0.0000000000000000000 ) ) ;
#16 = CARTESIAN_POINT ( 'NONE',  ( -51.00000000000000000, 0.0000000000000000000, 460.0000000000000000 ) ) ;
#17 = PLANE ( 'NONE',  #184 ) ;
#18 = DIRECTION ( 'NONE',  ( 0.0000000000000000000, 0.0000000000000000000, 1.000000000000000000 ) ) ;
#19 = DIRECTION ( 'NONE',  ( -1.000000000000000000, 0.0000000000000000000, 0.0000000000000000000 ) ) ;
#20 = CARTESIAN_POINT ( 'NONE',  ( 51.60000000000000100, -14.00000000000000000, 460.0000000000000000 ) ) ;
#21 = CARTESIAN_POINT ( 'NONE',  ( -51.00000000000000000, -14.00000000000000000, 0.0000000000000000000 ) ) ;
#22 = PLANE ( 'NONE',  #185 ) ;
#23 = DIRECTION ( 'NONE',  ( 0.0000000000000000000, -0.0000000000000000000, 1.000000000000000000 ) ) ;
#24 = CARTESIAN_POINT ( 'NONE',  ( -51.60000000000000100, 0.0000000000000000000, 460.0000000000000000 ) ) ;
#25 = PLANE ( 'NONE',  #189 ) ;
#26 = CARTESIAN_POINT ( 'NONE',  ( 51.00000000000000000, 0.0000000000000000000, 460.0000000000000000 ) ) ;
#27 = CARTESIAN_POINT ( 'NONE',  ( -51.00000000000000000, 0.5999999999999999800, 460.0000000000000000 ) ) ;
#28 = DIRECTION ( 'NONE',  ( 0.0000000000000000000, 1.000000000000000000, 0.0000000000000000000 ) ) ;
#29 = DIRECTION ( 'NONE',  ( -0.0000000000000000000, -0.0000000000000000000, -1.000000000000000000 ) ) ;
#30 = DIRECTION ( 'NONE',  ( 0.0000000000000000000, 1.000000000000000000, 0.0000000000000000000 ) ) ;
#31 = CARTESIAN_POINT ( 'NONE',  ( 0.0000000000000000000, -14.00099999999999900, 445.0000000000000600 ) ) ;
#32 = DIRECTION ( 'NONE',  ( -1.000000000000000000, 0.0000000000000000000, 0.0000000000000000000 ) ) ;
#33 = DIRECTION ( 'NONE',  ( -0.0000000000000000000, 0.0000000000000000000, -1.000000000000000000 ) ) ;
#34 = DIRECTION ( 'NONE',  ( -0.0000000000000000000, 1.000000000000000000, -0.0000000000000000000 ) ) ;
#35 = PLANE ( 'NONE',  #127 ) ;
#36 = DIRECTION ( 'NONE',  ( 0.0000000000000000000, -0.0000000000000000000, 1.000000000000000000 ) ) ;
#37 = CARTESIAN_POINT ( 'NONE',  ( -51.00000000000000000, 0.0000000000000000000, 460.0000000000000000 ) ) ;
#38 = CARTESIAN_POINT ( 'NONE',  ( 0.0000000000000000000, 0.0000000000000000000, 0.0000000000000000000 ) ) ;
#39 = PLANE ( 'NONE',  #128 ) ;
#40 = DIRECTION ( 'NONE',  ( 0.0000000000000000000, 0.0000000000000000000, 1.000000000000000000 ) ) ;
#41 = CARTESIAN_POINT ( 'NONE',  ( -51.00000000000000000, 0.0000000000000000000, 460.0000000000000000 ) ) ;
#42 = DIRECTION ( 'NONE',  ( -1.000000000000000000, 0.0000000000000000000, 0.0000000000000000000 ) ) ;
#43 = DIRECTION ( 'NONE',  ( 0.0000000000000000000, 1.000000000000000000, 0.0000000000000000000 ) ) ;
#44 = DIRECTION ( 'NONE',  ( -0.0000000000000000000, 0.0000000000000000000, -1.000000000000000000 ) ) ;
#45 = CARTESIAN_POINT ( 'NONE',  ( -51.60000000000000100, 0.0000000000000000000, 0.0000000000000000000 ) ) ;
#46 = PLANE ( 'NONE',  #129 ) ;
#47 = DIRECTION ( 'NONE',  ( 1.000000000000000000, 0.0000000000000000000, 0.0000000000000000000 ) ) ;
#48 = CARTESIAN_POINT ( 'NONE',  ( -51.00000000000000000, -14.00000000000000000, 460.0000000000000000 ) ) ;
#49 = DIRECTION ( 'NONE',  ( -0.0000000000000000000, 0.0000000000000000000, -1.000000000000000000 ) ) ;
#50 = DIRECTION ( 'NONE',  ( 1.000000000000000000, 0.0000000000000000000, -0.0000000000000000000 ) ) ;
#51 = DIRECTION ( 'NONE',  ( 0.0000000000000000000, 1.000000000000000000, 0.0000000000000000000 ) ) ;
#52 = CARTESIAN_POINT ( 'NONE',  ( -51.60000000000000100, -14.00000000000000000, 460.0000000000000000 ) ) ;
#53 = CARTESIAN_POINT ( 'NONE',  ( 0.0000000000000000000, 0.0000000000000000000, 460.0000000000000000 ) ) ;
#54 = PLANE ( 'NONE',  #130 ) ;
#55 = CARTESIAN_POINT ( 'NONE',  ( 1.734723475976807100E-015, -14.00099999999999900, 14.99999999999999300 ) ) ;
#56 = DIRECTION ( 'NONE',  ( 0.0000000000000000000, 0.0000000000000000000, 1.000000000000000000 ) ) ;
#57 = CARTESIAN_POINT ( 'NONE',  ( 51.60000000000000100, 0.0000000000000000000, 460.0000000000000000 ) ) ;
#58 = CARTESIAN_POINT ( 'NONE',  ( -51.60000000000000100, 0.5999999999999999800, 460.0000000000000000 ) ) ;
#59 = DIRECTION ( 'NONE',  ( 1.000000000000000000, 0.0000000000000000000, 0.0000000000000000000 ) ) ;
#60 = DIRECTION ( 'NONE',  ( -0.0000000000000000000, 1.000000000000000000, -0.0000000000000000000 ) ) ;
#61 = CARTESIAN_POINT ( 'NONE',  ( -51.60000000000000100, -14.00000000000000000, 460.0000000000000000 ) ) ;
#62 = DIRECTION ( 'NONE',  ( 0.0000000000000000000, 0.0000000000000000000, 1.000000000000000000 ) ) ;
#63 = CARTESIAN_POINT ( 'NONE',  ( -51.60000000000000100, -14.00000000000000000, 0.0000000000000000000 ) ) ;
#64 = CARTESIAN_POINT ( 'NONE',  ( 51.60000000000000100, 0.5999999999999999800, 0.0000000000000000000 ) ) ;
#65 = CARTESIAN_POINT ( 'NONE',  ( -51.00000000000000000, -14.00000000000000000, 0.0000000000000000000 ) ) ;
#66 = CARTESIAN_POINT ( 'NONE',  ( -51.60000000000000100, 0.5999999999999999800, 0.0000000000000000000 ) ) ;
#67 = DIRECTION ( 'NONE',  ( 0.0000000000000000000, 1.000000000000000000, 0.0000000000000000000 ) ) ;
#68 = CARTESIAN_POINT ( 'NONE',  ( -51.60000000000000100, 0.5999999999999999800, 460.0000000000000000 ) ) ;
#69 = CARTESIAN_POINT ( 'NONE',  ( 51.60000000000000100, -14.00000000000000000, 460.0000000000000000 ) ) ;
#70 = CARTESIAN_POINT ( 'NONE',  ( 1.734723475976807100E-015, 0.5999999999999999800, 14.99999999999999300 ) ) ;
#71 = CARTESIAN_POINT ( 'NONE',  ( -51.60000000000000100, 0.0000000000000000000, 460.0000000000000000 ) ) ;
#72 = CARTESIAN_POINT ( 'NONE',  ( 51.60000000000000100, -14.00000000000000000, 0.0000000000000000000 ) ) ;
#73 = CARTESIAN_POINT ( 'NONE',  ( 51.00000000000000000, -14.00000000000000000, 0.0000000000000000000 ) ) ;
#74 = CARTESIAN_POINT ( 'NONE',  ( 51.00000000000000000, -14.00000000000000000, 460.0000000000000000 ) ) ;
#75 = DIRECTION ( 'NONE',  ( 0.0000000000000000000, 0.0000000000000000000, -1.000000000000000000 ) ) ;
#76 = CARTESIAN_POINT ( 'NONE',  ( 51.00000000000000000, 0.0000000000000000000, 460.0000000000000000 ) ) ;
#77 = CARTESIAN_POINT ( 'NONE',  ( -51.00000000000000000, 0.0000000000000000000, 460.0000000000000000 ) ) ;
#78 = CARTESIAN_POINT ( 'NONE',  ( -51.00000000000000000, 0.0000000000000000000, 0.0000000000000000000 ) ) ;
#79 = DIRECTION ( 'NONE',  ( -0.0000000000000000000, 1.000000000000000000, -0.0000000000000000000 ) ) ;
#80 = DIRECTION ( 'NONE',  ( -0.0000000000000000000, -0.0000000000000000000, -1.000000000000000000 ) ) ;
#81 = CARTESIAN_POINT ( 'NONE',  ( -51.00000000000000000, -14.00000000000000000, 460.0000000000000000 ) ) ;
#82 = CARTESIAN_POINT ( 'NONE',  ( 51.60000000000000100, -14.00000000000000000, 460.0000000000000000 ) ) ;
#83 = DIRECTION ( 'NONE',  ( -0.0000000000000000000, -1.000000000000000000, 0.0000000000000000000 ) ) ;
#84 = CARTESIAN_POINT ( 'NONE',  ( 0.0000000000000000000, 0.5999999999999999800, 445.0000000000000600 ) ) ;
#85 = CARTESIAN_POINT ( 'NONE',  ( 51.60000000000000100, 0.0000000000000000000, 0.0000000000000000000 ) ) ;
#86 = CARTESIAN_POINT ( 'NONE',  ( -51.00000000000000000, 0.5999999999999999800, 460.0000000000000000 ) ) ;
#87 = DIRECTION ( 'NONE',  ( -0.0000000000000000000, -0.0000000000000000000, -1.000000000000000000 ) ) ;
#88 = DIRECTION ( 'NONE',  ( -1.000000000000000000, 0.0000000000000000000, 0.0000000000000000000 ) ) ;
#89 = CARTESIAN_POINT ( 'NONE',  ( 51.60000000000000100, -14.00000000000000000, 460.0000000000000000 ) ) ;
#90 = DIRECTION ( 'NONE',  ( -1.000000000000000000, 0.0000000000000000000, 0.0000000000000000000 ) ) ;
#91 = CARTESIAN_POINT ( 'NONE',  ( 51.60000000000000100, -14.00000000000000000, 0.0000000000000000000 ) ) ;
#92 = DIRECTION ( 'NONE',  ( -0.0000000000000000000, -0.0000000000000000000, -1.000000000000000000 ) ) ;
#93 = CARTESIAN_POINT ( 'NONE',  ( 51.00000000000000000, 0.0000000000000000000, 460.0000000000000000 ) ) ;
#94 = DIRECTION ( 'NONE',  ( 1.000000000000000000, 0.0000000000000000000, 0.0000000000000000000 ) ) ;
#95 = CARTESIAN_POINT ( 'NONE',  ( -51.00000000000000000, 0.0000000000000000000, 460.0000000000000000 ) ) ;
#96 = DIRECTION ( 'NONE',  ( -0.0000000000000000000, -1.000000000000000000, 0.0000000000000000000 ) ) ;
#97 = CARTESIAN_POINT ( 'NONE',  ( -51.00000000000000000, 0.0000000000000000000, 0.0000000000000000000 ) ) ;
#98 = DIRECTION ( 'NONE',  ( -0.0000000000000000000, -0.0000000000000000000, -1.000000000000000000 ) ) ;
#99 = DIRECTION ( 'NONE',  ( 0.0000000000000000000, 0.0000000000000000000, 1.000000000000000000 ) ) ;
#100 = DIRECTION ( 'NONE',  ( -0.0000000000000000000, -1.000000000000000000, -0.0000000000000000000 ) ) ;
#101 = CARTESIAN_POINT ( 'NONE',  ( 1.734723475976807100E-015, 0.0000000000000000000, 14.99999999999999300 ) ) ;
#102 = CARTESIAN_POINT ( 'NONE',  ( 51.60000000000000100, 0.5999999999999999800, 460.0000000000000000 ) ) ;
#103 = DIRECTION ( 'NONE',  ( -0.0000000000000000000, -0.0000000000000000000, -1.000000000000000000 ) ) ;
#104 = CARTESIAN_POINT ( 'NONE',  ( 51.60000000000000100, 0.0000000000000000000, 460.0000000000000000 ) ) ;
#105 = CARTESIAN_POINT ( 'NONE',  ( 51.60000000000000100, 0.5999999999999999800, 460.0000000000000000 ) ) ;
#106 = DIRECTION ( 'NONE',  ( 0.0000000000000000000, 0.0000000000000000000, 1.000000000000000000 ) ) ;
#107 = DIRECTION ( 'NONE',  ( -0.0000000000000000000, -1.000000000000000000, -0.0000000000000000000 ) ) ;
#108 = CARTESIAN_POINT ( 'NONE',  ( 0.0000000000000000000, 0.0000000000000000000, 445.0000000000000600 ) ) ;
#109 = CARTESIAN_POINT ( 'NONE',  ( 51.00000000000000000, 0.0000000000000000000, 0.0000000000000000000 ) ) ;
#110 = CARTESIAN_POINT ( 'NONE',  ( -51.00000000000000000, 0.5999999999999999800, 0.0000000000000000000 ) ) ;
#111 = DIRECTION ( 'NONE',  ( 1.000000000000000000, 0.0000000000000000000, 0.0000000000000000000 ) ) ;
#112 = DIRECTION ( 'NONE',  ( -0.0000000000000000000, 1.000000000000000000, -0.0000000000000000000 ) ) ;
#113 = DIRECTION ( 'NONE',  ( -0.0000000000000000000, -0.0000000000000000000, -1.000000000000000000 ) ) ;
#114 = CARTESIAN_POINT ( 'NONE',  ( 51.00000000000000000, -14.00000000000000000, 460.0000000000000000 ) ) ;
#115 = CARTESIAN_POINT ( 'NONE',  ( -51.00000000000000000, 0.0000000000000000000, 460.0000000000000000 ) ) ;
#116 = DIRECTION ( 'NONE',  ( -0.0000000000000000000, 1.000000000000000000, -0.0000000000000000000 ) ) ;
#117 = CARTESIAN_POINT ( 'NONE',  ( 51.00000000000000000, 0.0000000000000000000, 0.0000000000000000000 ) ) ;
#118 = DIRECTION ( 'NONE',  ( 0.0000000000000000000, -1.000000000000000000, 0.0000000000000000000 ) ) ;
#119 = CARTESIAN_POINT ( 'NONE',  ( -51.00000000000000000, 0.0000000000000000000, 0.0000000000000000000 ) ) ;
#120 = DIRECTION ( 'NONE',  ( -1.000000000000000000, 0.0000000000000000000, 0.0000000000000000000 ) ) ;
#121 = DIRECTION ( 'NONE',  ( -0.0000000000000000000, -0.0000000000000000000, -1.000000000000000000 ) ) ;
#122 = CARTESIAN_POINT ( 'NONE',  ( -51.00000000000000000, -14.00000000000000000, 460.0000000000000000 ) ) ;
#123 = CARTESIAN_POINT ( 'NONE',  ( 51.00000000000000000, 0.0000000000000000000, 460.0000000000000000 ) ) ;
#124 = DIRECTION ( 'NONE',  ( -1.000000000000000000, 0.0000000000000000000, 0.0000000000000000000 ) ) ;
#125 = DIRECTION ( 'NONE',  ( 0.0000000000000000000, -1.000000000000000000, 0.0000000000000000000 ) ) ;
#126 = AXIS2_PLACEMENT_3D ( 'NONE', #31, #34, #40 ) ;
#127 = AXIS2_PLACEMENT_3D ( 'NONE', #38, #33, #32 ) ;
#128 = AXIS2_PLACEMENT_3D ( 'NONE', #41, #51, #36 ) ;
#129 = AXIS2_PLACEMENT_3D ( 'NONE', #53, #44, #42 ) ;
#130 = AXIS2_PLACEMENT_3D ( 'NONE', #57, #50, #49 ) ;
#131 = AXIS2_PLACEMENT_3D ( 'NONE', #55, #60, #56 ) ;
#132 = AXIS2_PLACEMENT_3D ( 'NONE', #101, #100, #99 ) ;
#133 = AXIS2_PLACEMENT_3D ( 'NONE', #108, #107, #106 ) ;
#134 = AXIS2_PLACEMENT_3D ( 'NONE', #70, #67, #62 ) ;
#135 = AXIS2_PLACEMENT_3D ( 'NONE', #84, #79, #75 ) ;
#136 = EDGE_CURVE ( 'NONE', #257, #259, #204, .T. ) ;
#137 = EDGE_CURVE ( 'NONE', #258, #261, #290, .T. ) ;
#138 = EDGE_CURVE ( 'NONE', #260, #268, #295, .T. ) ;
#139 = EDGE_CURVE ( 'NONE', #260, #264, #202, .T. ) ;
#140 = EDGE_CURVE ( 'NONE', #322, #322, #200, .T. ) ;
#141 = EDGE_CURVE ( 'NONE', #321, #321, #194, .T. ) ;
#142 = EDGE_CURVE ( 'NONE', #266, #268, #196, .T. ) ;
#143 = EDGE_CURVE ( 'NONE', #265, #266, #198, .T. ) ;
#144 = EDGE_CURVE ( 'NONE', #265, #260, #195, .T. ) ;
#145 = EDGE_CURVE ( 'NONE', #269, #266, #193, .T. ) ;
#146 = EDGE_CURVE ( 'NONE', #270, #269, #190, .T. ) ;
#147 = EDGE_CURVE ( 'NONE', #270, #265, #324, .T. ) ;
#148 = EDGE_CURVE ( 'NONE', #267, #269, #361, .T. ) ;
#149 = EDGE_CURVE ( 'NONE', #262, #267, #363, .T. ) ;
#150 = EDGE_CURVE ( 'NONE', #262, #270, #356, .T. ) ;
#151 = EDGE_CURVE ( 'NONE', #267, #256, #378, .T. ) ;
#152 = EDGE_CURVE ( 'NONE', #255, #256, #340, .T. ) ;
#153 = EDGE_CURVE ( 'NONE', #262, #255, #337, .T. ) ;
#154 = EDGE_CURVE ( 'NONE', #310, #310, #392, .T. ) ;
#155 = EDGE_CURVE ( 'NONE', #358, #358, #365, .T. ) ;
#156 = EDGE_CURVE ( 'NONE', #259, #261, #357, .T. ) ;
#157 = EDGE_CURVE ( 'NONE', #256, #258, #312, .T. ) ;
#158 = EDGE_CURVE ( 'NONE', #255, #257, #326, .T. ) ;
#159 = EDGE_CURVE ( 'NONE', #257, #258, #323, .T. ) ;
#160 = EDGE_CURVE ( 'NONE', #263, #261, #364, .T. ) ;
#161 = EDGE_CURVE ( 'NONE', #264, #259, #316, .T. ) ;
#162 = EDGE_CURVE ( 'NONE', #268, #263, #353, .T. ) ;
#163 = EDGE_CURVE ( 'NONE', #264, #263, #355, .T. ) ;
#164 = PRODUCT_RELATED_PRODUCT_CATEGORY ( 'detail', '', ( #301 ) ) ;
#165 = CC_DESIGN_SECURITY_CLASSIFICATION ( #170, ( #180 ) ) ;
#166 = CC_DESIGN_APPROVAL ( #167, ( #170 ) ) ;
#167 = APPROVAL ( #413, 'UNSPECIFIED' ) ;
#168 = CC_DESIGN_DATE_AND_TIME_ASSIGNMENT ( #374, #414, ( #170 ) ) ;
#169 = CC_DESIGN_PERSON_AND_ORGANIZATION_ASSIGNMENT ( #383, #415, ( #170 ) ) ;
#170 = SECURITY_CLASSIFICATION ( '', '', #416 ) ;
#171 = CC_DESIGN_PERSON_AND_ORGANIZATION_ASSIGNMENT ( #377, #417, ( #180 ) ) ;
#172 = AXIS2_PLACEMENT_3D ( 'NONE', #20, #11, #10 ) ;
#173 = PRODUCT_DEFINITION ( 'UNKNOWN', '', #180, #411 ) ;
#174 = APPROVAL ( #424, 'UNSPECIFIED' ) ;
#175 = CC_DESIGN_PERSON_AND_ORGANIZATION_ASSIGNMENT ( #390, #427, ( #301 ) ) ;
#176 = CC_DESIGN_APPROVAL ( #174, ( #173 ) ) ;
#177 =( GEOMETRIC_REPRESENTATION_CONTEXT ( 3 ) GLOBAL_UNCERTAINTY_ASSIGNED_CONTEXT ( ( #397 ) ) GLOBAL_UNIT_ASSIGNED_CONTEXT ( ( #434, #433, #432 ) ) REPRESENTATION_CONTEXT ( 'NONE', 'WORKASPACE' ) );
#178 = CC_DESIGN_DATE_AND_TIME_ASSIGNMENT ( #306, #421, ( #173 ) ) ;
#179 = APPROVAL ( #420, 'UNSPECIFIED' ) ;
#180 = PRODUCT_DEFINITION_FORMATION_WITH_SPECIFIED_SOURCE ( 'ANY', '', #301, .NOT_KNOWN. ) ;
#181 = CC_DESIGN_APPROVAL ( #179, ( #180 ) ) ;
#182 = CC_DESIGN_PERSON_AND_ORGANIZATION_ASSIGNMENT ( #302, #422, ( #173 ) ) ;
#183 = AXIS2_PLACEMENT_3D ( 'NONE', #16, #7, #6 ) ;
#184 = AXIS2_PLACEMENT_3D ( 'NONE', #26, #15, #14 ) ;
#185 = AXIS2_PLACEMENT_3D ( 'NONE', #24, #19, #18 ) ;
#186 = AXIS2_PLACEMENT_3D ( 'NONE', #437, #436, #429 ) ;
#187 = AXIS2_PLACEMENT_3D ( 'NONE', #12, #4, #3 ) ;
#188 = CC_DESIGN_PERSON_AND_ORGANIZATION_ASSIGNMENT ( #384, #418, ( #180 ) ) ;
#189 = AXIS2_PLACEMENT_3D ( 'NONE', #27, #30, #23 ) ;
#190 = LINE ( 'NONE', #52, #394 ) ;
#191 = VECTOR ( 'NONE', #43, 1000.000000000000000 ) ;
#192 = VECTOR ( 'NONE', #47, 1000.000000000000000 ) ;
#193 = LINE ( 'NONE', #45, #191 ) ;
#194 = CIRCLE ( 'NONE', #134, 2.500000000000002200 ) ;
#195 = LINE ( 'NONE', #86, #192 ) ;
#196 = LINE ( 'NONE', #110, #229 ) ;
#197 = VECTOR ( 'NONE', #96, 1000.000000000000000 ) ;
#198 = LINE ( 'NONE', #58, #230 ) ;
#199 = VECTOR ( 'NONE', #103, 1000.000000000000000 ) ;
#200 = CIRCLE ( 'NONE', #135, 2.500000000000002200 ) ;
#201 = VECTOR ( 'NONE', #118, 1000.000000000000000 ) ;
#202 = LINE ( 'NONE', #104, #197 ) ;
#203 = VECTOR ( 'NONE', #125, 1000.000000000000000 ) ;
#204 = LINE ( 'NONE', #123, #203 ) ;
#205 = ORIENTED_EDGE ( 'NONE', *, *, #152, .T. ) ;
#206 = ORIENTED_EDGE ( 'NONE', *, *, #139, .T. ) ;
#207 = ORIENTED_EDGE ( 'NONE', *, *, #162, .T. ) ;
#208 = ORIENTED_EDGE ( 'NONE', *, *, #146, .T. ) ;
#209 = ORIENTED_EDGE ( 'NONE', *, *, #149, .F. ) ;
#210 = ORIENTED_EDGE ( 'NONE', *, *, #150, .F. ) ;
#211 = ORIENTED_EDGE ( 'NONE', *, *, #144, .F. ) ;
#212 = ORIENTED_EDGE ( 'NONE', *, *, #154, .F. ) ;
#213 = ORIENTED_EDGE ( 'NONE', *, *, #149, .T. ) ;
#214 = ORIENTED_EDGE ( 'NONE', *, *, #142, .T. ) ;
#215 = ORIENTED_EDGE ( 'NONE', *, *, #143, .T. ) ;
#216 = ORIENTED_EDGE ( 'NONE', *, *, #153, .F. ) ;
#217 = ORIENTED_EDGE ( 'NONE', *, *, #158, .T. ) ;
#218 = ORIENTED_EDGE ( 'NONE', *, *, #158, .F. ) ;
#219 = ORIENTED_EDGE ( 'NONE', *, *, #157, .T. ) ;
#220 = ORIENTED_EDGE ( 'NONE', *, *, #157, .F. ) ;
#221 = ORIENTED_EDGE ( 'NONE', *, *, #159, .F. ) ;
#222 = ORIENTED_EDGE ( 'NONE', *, *, #155, .F. ) ;
#223 = ORIENTED_EDGE ( 'NONE', *, *, #139, .F. ) ;
#224 = ORIENTED_EDGE ( 'NONE', *, *, #161, .F. ) ;
#225 = ORIENTED_EDGE ( 'NONE', *, *, #147, .F. ) ;
#226 = ORIENTED_EDGE ( 'NONE', *, *, #136, .T. ) ;
#227 = ORIENTED_EDGE ( 'NONE', *, *, #147, .T. ) ;
#228 = ORIENTED_EDGE ( 'NONE', *, *, #163, .T. ) ;
#229 = VECTOR ( 'NONE', #59, 1000.000000000000000 ) ;
#230 = VECTOR ( 'NONE', #87, 1000.000000000000000 ) ;
#231 = ORIENTED_EDGE ( 'NONE', *, *, #140, .F. ) ;
#232 = ORIENTED_EDGE ( 'NONE', *, *, #155, .T. ) ;
#233 = ORIENTED_EDGE ( 'NONE', *, *, #138, .F. ) ;
#234 = CLOSED_SHELL ( 'NONE', ( #406, #407, #399, #404, #405, #409, #408, #401, #400, #402, #398, #403 ) ) ;
#235 = ORIENTED_EDGE ( 'NONE', *, *, #154, .T. ) ;
#236 = ORIENTED_EDGE ( 'NONE', *, *, #148, .T. ) ;
#237 = ORIENTED_EDGE ( 'NONE', *, *, #141, .F. ) ;
#238 = ORIENTED_EDGE ( 'NONE', *, *, #151, .F. ) ;
#239 = ORIENTED_EDGE ( 'NONE', *, *, #152, .F. ) ;
#240 = ORIENTED_EDGE ( 'NONE', *, *, #146, .F. ) ;
#241 = ORIENTED_EDGE ( 'NONE', *, *, #145, .T. ) ;
#242 = ORIENTED_EDGE ( 'NONE', *, *, #150, .T. ) ;
#243 = ORIENTED_EDGE ( 'NONE', *, *, #137, .F. ) ;
#244 = ORIENTED_EDGE ( 'NONE', *, *, #148, .F. ) ;
#245 = ORIENTED_EDGE ( 'NONE', *, *, #142, .F. ) ;
#246 = ORIENTED_EDGE ( 'NONE', *, *, #141, .T. ) ;
#247 = ORIENTED_EDGE ( 'NONE', *, *, #153, .T. ) ;
#248 = ORIENTED_EDGE ( 'NONE', *, *, #143, .F. ) ;
#249 = ORIENTED_EDGE ( 'NONE', *, *, #151, .T. ) ;
#250 = ORIENTED_EDGE ( 'NONE', *, *, #140, .T. ) ;
#251 = ORIENTED_EDGE ( 'NONE', *, *, #144, .T. ) ;
#252 = ORIENTED_EDGE ( 'NONE', *, *, #138, .T. ) ;
#253 = ORIENTED_EDGE ( 'NONE', *, *, #160, .T. ) ;
#254 = ORIENTED_EDGE ( 'NONE', *, *, #145, .F. ) ;
#255 = VERTEX_POINT ( 'NONE', #77 ) ;
#256 = VERTEX_POINT ( 'NONE', #78 ) ;
#257 = VERTEX_POINT ( 'NONE', #76 ) ;
#258 = VERTEX_POINT ( 'NONE', #109 ) ;
#259 = VERTEX_POINT ( 'NONE', #74 ) ;
#260 = VERTEX_POINT ( 'NONE', #102 ) ;
#261 = VERTEX_POINT ( 'NONE', #73 ) ;
#262 = VERTEX_POINT ( 'NONE', #81 ) ;
#263 = VERTEX_POINT ( 'NONE', #72 ) ;
#264 = VERTEX_POINT ( 'NONE', #69 ) ;
#265 = VERTEX_POINT ( 'NONE', #68 ) ;
#266 = VERTEX_POINT ( 'NONE', #66 ) ;
#267 = VERTEX_POINT ( 'NONE', #65 ) ;
#268 = VERTEX_POINT ( 'NONE', #64 ) ;
#269 = VERTEX_POINT ( 'NONE', #63 ) ;
#270 = VERTEX_POINT ( 'NONE', #61 ) ;
#271 = ORIENTED_EDGE ( 'NONE', *, *, #156, .T. ) ;
#272 = ORIENTED_EDGE ( 'NONE', *, *, #137, .T. ) ;
#273 = ORIENTED_EDGE ( 'NONE', *, *, #156, .F. ) ;
#274 = ORIENTED_EDGE ( 'NONE', *, *, #162, .F. ) ;
#275 = ORIENTED_EDGE ( 'NONE', *, *, #136, .F. ) ;
#276 = ORIENTED_EDGE ( 'NONE', *, *, #163, .F. ) ;
#277 = ORIENTED_EDGE ( 'NONE', *, *, #160, .F. ) ;
#278 = ORIENTED_EDGE ( 'NONE', *, *, #161, .T. ) ;
#279 = ORIENTED_EDGE ( 'NONE', *, *, #159, .T. ) ;
#280 = EDGE_LOOP ( 'NONE', ( #226, #224, #223, #211, #225, #210, #247, #217 ) ) ;
#281 = EDGE_LOOP ( 'NONE', ( #254, #240, #227, #215 ) ) ;
#282 = EDGE_LOOP ( 'NONE', ( #231 ) ) ;
#283 = EDGE_LOOP ( 'NONE', ( #277, #276, #278, #271 ) ) ;
#284 = EDGE_LOOP ( 'NONE', ( #237 ) ) ;
#285 = EDGE_LOOP ( 'NONE', ( #272, #273, #275, #279 ) ) ;
#286 = EDGE_LOOP ( 'NONE', ( #249, #239, #216, #213 ) ) ;
#287 = EDGE_LOOP ( 'NONE', ( #212 ) ) ;
#288 = EDGE_LOOP ( 'NONE', ( #245, #248, #251, #252 ) ) ;
#289 = EDGE_LOOP ( 'NONE', ( #244, #209, #242, #208 ) ) ;
#290 = LINE ( 'NONE', #117, #201 ) ;
#291 = EDGE_LOOP ( 'NONE', ( #274, #233, #206, #228 ) ) ;
#292 = EDGE_LOOP ( 'NONE', ( #243, #220, #238, #236, #241, #214, #207, #253 ) ) ;
#293 = EDGE_LOOP ( 'NONE', ( #246 ) ) ;
#294 = EDGE_LOOP ( 'NONE', ( #219, #221, #218, #205 ) ) ;
#295 = LINE ( 'NONE', #105, #199 ) ;
#296 = EDGE_LOOP ( 'NONE', ( #232 ) ) ;
#297 = EDGE_LOOP ( 'NONE', ( #235 ) ) ;
#298 = EDGE_LOOP ( 'NONE', ( #222 ) ) ;
#299 = EDGE_LOOP ( 'NONE', ( #250 ) ) ;
#300 = PERSON ( 'UNSPECIFIED', 'UNSPECIFIED', 'UNSPECIFIED', ('UNSPECIFIED'), ('UNSPECIFIED'), ('UNSPECIFIED') ) ;
#301 = PRODUCT ( 'Êðûøêà íà îòâåòâèòåëü Ò-îáðàçíûé âåðòèêàëüíûé TDSA_38386', 'Êðûøêà íà îòâåòâèòåëü Ò-îáðàçíûé âåðòèêàëüíûé TDSA_38386', '', ( #428 ) ) ;
#302 = PERSON_AND_ORGANIZATION ( #300, #317 ) ;
#303 = PERSON_AND_ORGANIZATION ( #300, #317 ) ;
#304 = CALENDAR_DATE ( 2012, 9, 11 ) ;
#305 = DATE_AND_TIME ( #304, #391 ) ;
#306 = DATE_AND_TIME ( #320, #393 ) ;
#307 = FACE_OUTER_BOUND ( 'NONE', #286, .T. ) ;
#308 = VECTOR ( 'NONE', #112, 1000.000000000000000 ) ;
#309 = VECTOR ( 'NONE', #113, 1000.000000000000000 ) ;
#310 = VERTEX_POINT ( 'NONE', #435 ) ;
#311 = VECTOR ( 'NONE', #98, 1000.000000000000000 ) ;
#312 = LINE ( 'NONE', #97, #348 ) ;
#313 = COORDINATED_UNIVERSAL_TIME_OFFSET ( 4, 0, .AHEAD. ) ;
#314 = APPROVAL_DATE_TIME ( #382, #179 ) ;
#315 = COORDINATED_UNIVERSAL_TIME_OFFSET ( 4, 0, .AHEAD. ) ;
#316 = LINE ( 'NONE', #89, #354 ) ;
#317 = ORGANIZATION ( 'UNSPECIFIED', 'UNSPECIFIED', '' ) ;
#318 = COORDINATED_UNIVERSAL_TIME_OFFSET ( 4, 0, .AHEAD. ) ;
#319 = APPROVAL_DATE_TIME ( #305, #174 ) ;
#320 = CALENDAR_DATE ( 2012, 9, 11 ) ;
#321 = VERTEX_POINT ( 'NONE', #2 ) ;
#322 = VERTEX_POINT ( 'NONE', #1 ) ;
#323 = LINE ( 'NONE', #93, #360 ) ;
#324 = LINE ( 'NONE', #71, #347 ) ;
#325 = FACE_OUTER_BOUND ( 'NONE', #283, .T. ) ;
#326 = LINE ( 'NONE', #95, #341 ) ;
#327 = FACE_OUTER_BOUND ( 'NONE', #289, .T. ) ;
#328 = SHAPE_DEFINITION_REPRESENTATION ( #410, #396 ) ;
#329 = FACE_BOUND ( 'NONE', #284, .T. ) ;
#330 = FACE_OUTER_BOUND ( 'NONE', #288, .T. ) ;
#331 = FACE_OUTER_BOUND ( 'NONE', #281, .T. ) ;
#332 = FACE_OUTER_BOUND ( 'NONE', #297, .T. ) ;
#333 = FACE_OUTER_BOUND ( 'NONE', #285, .T. ) ;
#334 = CYLINDRICAL_SURFACE ( 'NONE', #126, 2.500000000000002200 ) ;
#335 = FACE_OUTER_BOUND ( 'NONE', #280, .T. ) ;
#336 = FACE_BOUND ( 'NONE', #282, .T. ) ;
#337 = LINE ( 'NONE', #37, #308 ) ;
#338 = CYLINDRICAL_SURFACE ( 'NONE', #131, 2.500000000000002200 ) ;
#339 = FACE_OUTER_BOUND ( 'NONE', #294, .T. ) ;
#340 = LINE ( 'NONE', #115, #309 ) ;
#341 = VECTOR ( 'NONE', #94, 1000.000000000000000 ) ;
#342 = FACE_OUTER_BOUND ( 'NONE', #293, .T. ) ;
#343 = FACE_BOUND ( 'NONE', #298, .T. ) ;
#344 = FACE_OUTER_BOUND ( 'NONE', #292, .T. ) ;
#345 = FACE_OUTER_BOUND ( 'NONE', #291, .T. ) ;
#346 = FACE_OUTER_BOUND ( 'NONE', #296, .T. ) ;
#347 = VECTOR ( 'NONE', #28, 1000.000000000000000 ) ;
#348 = VECTOR ( 'NONE', #111, 1000.000000000000000 ) ;
#349 = VECTOR ( 'NONE', #80, 1000.000000000000000 ) ;
#350 = VECTOR ( 'NONE', #121, 1000.000000000000000 ) ;
#351 = FACE_OUTER_BOUND ( 'NONE', #299, .T. ) ;
#352 = FACE_BOUND ( 'NONE', #287, .T. ) ;
#353 = LINE ( 'NONE', #85, #359 ) ;
#354 = VECTOR ( 'NONE', #88, 1000.000000000000000 ) ;
#355 = LINE ( 'NONE', #82, #349 ) ;
#356 = LINE ( 'NONE', #48, #379 ) ;
#357 = LINE ( 'NONE', #114, #311 ) ;
#358 = VERTEX_POINT ( 'NONE', #8 ) ;
#359 = VECTOR ( 'NONE', #83, 1000.000000000000000 ) ;
#360 = VECTOR ( 'NONE', #92, 1000.000000000000000 ) ;
#361 = LINE ( 'NONE', #21, #362 ) ;
#362 = VECTOR ( 'NONE', #124, 1000.000000000000000 ) ;
#363 = LINE ( 'NONE', #122, #350 ) ;
#364 = LINE ( 'NONE', #91, #387 ) ;
#365 = CIRCLE ( 'NONE', #132, 2.500000000000002200 ) ;
#366 = APPROVAL_DATE_TIME ( #367, #167 ) ;
#367 = DATE_AND_TIME ( #368, #369 ) ;
#368 = CALENDAR_DATE ( 2012, 9, 11 ) ;
#369 = LOCAL_TIME ( 12, 44, 19.00000000000000000, #370 ) ;
#370 = COORDINATED_UNIVERSAL_TIME_OFFSET ( 4, 0, .AHEAD. ) ;
#371 = APPROVAL_PERSON_ORGANIZATION ( #373, #167, #412 ) ;
#372 = VECTOR ( 'NONE', #116, 1000.000000000000000 ) ;
#373 = PERSON_AND_ORGANIZATION ( #300, #317 ) ;
#374 = DATE_AND_TIME ( #375, #376 ) ;
#375 = CALENDAR_DATE ( 2012, 9, 11 ) ;
#376 = LOCAL_TIME ( 12, 44, 19.00000000000000000, #315 ) ;
#377 = PERSON_AND_ORGANIZATION ( #300, #317 ) ;
#378 = LINE ( 'NONE', #119, #372 ) ;
#379 = VECTOR ( 'NONE', #120, 1000.000000000000000 ) ;
#380 = PERSON_AND_ORGANIZATION ( #300, #317 ) ;
#381 = CALENDAR_DATE ( 2012, 9, 11 ) ;
#382 = DATE_AND_TIME ( #381, #385 ) ;
#383 = PERSON_AND_ORGANIZATION ( #300, #317 ) ;
#384 = PERSON_AND_ORGANIZATION ( #300, #317 ) ;
#385 = LOCAL_TIME ( 12, 44, 19.00000000000000000, #313 ) ;
#386 = APPROVAL_PERSON_ORGANIZATION ( #380, #179, #419 ) ;
#387 = VECTOR ( 'NONE', #90, 1000.000000000000000 ) ;
#388 = APPROVAL_PERSON_ORGANIZATION ( #303, #174, #423 ) ;
#389 = COORDINATED_UNIVERSAL_TIME_OFFSET ( 4, 0, .AHEAD. ) ;
#390 = PERSON_AND_ORGANIZATION ( #300, #317 ) ;
#391 = LOCAL_TIME ( 12, 44, 19.00000000000000000, #318 ) ;
#392 = CIRCLE ( 'NONE', #133, 2.500000000000002200 ) ;
#393 = LOCAL_TIME ( 12, 44, 19.00000000000000000, #389 ) ;
#394 = VECTOR ( 'NONE', #29, 1000.000000000000000 ) ;
#395 = MANIFOLD_SOLID_BREP ( 'Âûðåç-Âûòÿíóòü1', #234 ) ;
#396 = ADVANCED_BREP_SHAPE_REPRESENTATION ( '¦¨v°úð ýð þªòõªòøªõû¹ T-þñ¨ð÷ývù òõ¨ªøúðû¹ývù TDSA_38386', ( #395, #186 ), #177 ) ;
#397 = UNCERTAINTY_MEASURE_WITH_UNIT (LENGTH_MEASURE( 1.000000000000000100E-005 ), #434, 'distance_accuracy_value', 'NONE');
#398 = ADVANCED_FACE ( 'NONE', ( #342, #346 ), #338, .F. ) ;
#399 = ADVANCED_FACE ( 'NONE', ( #345 ), #54, .T. ) ;
#400 = ADVANCED_FACE ( 'NONE', ( #335 ), #46, .F. ) ;
#401 = ADVANCED_FACE ( 'NONE', ( #352, #343, #339 ), #39, .F. ) ;
#402 = ADVANCED_FACE ( 'NONE', ( #344 ), #35, .T. ) ;
#403 = ADVANCED_FACE ( 'NONE', ( #351, #332 ), #334, .F. ) ;
#404 = ADVANCED_FACE ( 'NONE', ( #336, #329, #330 ), #25, .T. ) ;
#405 = ADVANCED_FACE ( 'NONE', ( #331 ), #22, .T. ) ;
#406 = ADVANCED_FACE ( 'NONE', ( #333 ), #17, .F. ) ;
#407 = ADVANCED_FACE ( 'NONE', ( #325 ), #13, .T. ) ;
#408 = ADVANCED_FACE ( 'NONE', ( #307 ), #9, .F. ) ;
#409 = ADVANCED_FACE ( 'NONE', ( #327 ), #5, .T. ) ;
#410 = PRODUCT_DEFINITION_SHAPE ( 'NONE', 'NONE',  #173 ) ;
#411 = DESIGN_CONTEXT ( 'detailed design', #426, 'design' ) ;
#412 = APPROVAL_ROLE ( '' ) ;
#413 = APPROVAL_STATUS ( 'not_yet_approved' ) ;
#414 = DATE_TIME_ROLE ( 'classification_date' ) ;
#415 = PERSON_AND_ORGANIZATION_ROLE ( 'classification_officer' ) ;
#416 = SECURITY_CLASSIFICATION_LEVEL ( 'unclassified' ) ;
#417 = PERSON_AND_ORGANIZATION_ROLE ( 'design_supplier' ) ;
#418 = PERSON_AND_ORGANIZATION_ROLE ( 'creator' ) ;
#419 = APPROVAL_ROLE ( '' ) ;
#420 = APPROVAL_STATUS ( 'not_yet_approved' ) ;
#421 = DATE_TIME_ROLE ( 'creation_date' ) ;
#422 = PERSON_AND_ORGANIZATION_ROLE ( 'creator' ) ;
#423 = APPROVAL_ROLE ( '' ) ;
#424 = APPROVAL_STATUS ( 'not_yet_approved' ) ;
#425 = APPLICATION_PROTOCOL_DEFINITION ( 'international standard', 'config_control_design', 1994, #426 ) ;
#426 = APPLICATION_CONTEXT ( 'configuration controlled 3d designs of mechanical parts and assemblies' ) ;
#427 = PERSON_AND_ORGANIZATION_ROLE ( 'design_owner' ) ;
#428 = MECHANICAL_CONTEXT ( 'NONE', #430, 'mechanical' ) ;
#429 = DIRECTION ( 'NONE',  ( 1.000000000000000000, 0.0000000000000000000, 0.0000000000000000000 ) ) ;
#430 = APPLICATION_CONTEXT ( 'configuration controlled 3d designs of mechanical parts and assemblies' ) ;
#431 = APPLICATION_PROTOCOL_DEFINITION ( 'international standard', 'config_control_design', 1994, #430 ) ;
#432 =( NAMED_UNIT ( * ) SI_UNIT ( $, .STERADIAN. ) SOLID_ANGLE_UNIT ( ) );
#433 =( NAMED_UNIT ( * ) PLANE_ANGLE_UNIT ( ) SI_UNIT ( $, .RADIAN. ) );
#434 =( LENGTH_UNIT ( ) NAMED_UNIT ( * ) SI_UNIT ( .MILLI., .METRE. ) );
#435 = CARTESIAN_POINT ( 'NONE',  ( 0.0000000000000000000, 0.0000000000000000000, 447.5000000000000600 ) ) ;
#436 = DIRECTION ( 'NONE',  ( 0.0000000000000000000, 0.0000000000000000000, 1.000000000000000000 ) ) ;
#437 = CARTESIAN_POINT ( 'NONE',  ( 0.0000000000000000000, 0.0000000000000000000, 0.0000000000000000000 ) ) ;
ENDSEC;
END-ISO-10303-21;
