ISO-10303-21;
HEADER;
FILE_DESCRIPTION (( 'STEP AP203' ),
    '1' );
FILE_NAME ('Êðûøêà íà óãîë âåðòèêàëüíûé âíåøíèé CDSD 90_38282.STEP',
    '2012-11-09T08:45:05',
    ( 'Àñååâ' ),
    ( '' ),
    'SwSTEP 2.0',
    'SolidWorks 2012',
    '' );
FILE_SCHEMA (( 'CONFIG_CONTROL_DESIGN' ));
ENDSEC;

DATA;
#1 = ORIENTED_EDGE ( 'NONE', *, *, #228, .T. ) ;
#2 = LINE ( 'NONE', #435, #99 ) ;
#3 = VECTOR ( 'NONE', #432, 1000.000000000000000 ) ;
#4 = ORIENTED_EDGE ( 'NONE', *, *, #230, .F. ) ;
#5 = ORIENTED_EDGE ( 'NONE', *, *, #276, .F. ) ;
#6 = VERTEX_POINT ( 'NONE', #308 ) ;
#7 = ORIENTED_EDGE ( 'NONE', *, *, #249, .T. ) ;
#8 = ORIENTED_EDGE ( 'NONE', *, *, #223, .F. ) ;
#9 = FACE_OUTER_BOUND ( 'NONE', #55, .T. ) ;
#10 = ORIENTED_EDGE ( 'NONE', *, *, #249, .F. ) ;
#11 = ORIENTED_EDGE ( 'NONE', *, *, #229, .F. ) ;
#12 = ORIENTED_EDGE ( 'NONE', *, *, #228, .F. ) ;
#13 = ORIENTED_EDGE ( 'NONE', *, *, #224, .T. ) ;
#14 = CLOSED_SHELL ( 'NONE', ( #216, #209, #215, #214, #211, #219, #220, #217, #210, #218, #212, #213 ) ) ;
#15 = ORIENTED_EDGE ( 'NONE', *, *, #279, .F. ) ;
#16 = ORIENTED_EDGE ( 'NONE', *, *, #252, .F. ) ;
#17 = PERSON_AND_ORGANIZATION ( #205, #159 ) ;
#18 = ORIENTED_EDGE ( 'NONE', *, *, #221, .T. ) ;
#19 = ORIENTED_EDGE ( 'NONE', *, *, #282, .T. ) ;
#20 = ORIENTED_EDGE ( 'NONE', *, *, #279, .T. ) ;
#21 = ORIENTED_EDGE ( 'NONE', *, *, #239, .T. ) ;
#22 = EDGE_LOOP ( 'NONE', ( #115 ) ) ;
#23 = LINE ( 'NONE', #433, #33 ) ;
#24 = VECTOR ( 'NONE', #430, 1000.000000000000000 ) ;
#25 = ORIENTED_EDGE ( 'NONE', *, *, #246, .T. ) ;
#26 = EDGE_LOOP ( 'NONE', ( #112, #171, #160, #81 ) ) ;
#27 = FACE_BOUND ( 'NONE', #49, .T. ) ;
#28 = EDGE_LOOP ( 'NONE', ( #12, #11, #10, #18, #13, #19, #155, #21 ) ) ;
#29 = FACE_OUTER_BOUND ( 'NONE', #22, .T. ) ;
#30 = FACE_OUTER_BOUND ( 'NONE', #56, .T. ) ;
#31 = VERTEX_POINT ( 'NONE', #318 ) ;
#32 = DATE_AND_TIME ( #45, #143 ) ;
#33 = VECTOR ( 'NONE', #350, 1000.000000000000000 ) ;
#34 = VERTEX_POINT ( 'NONE', #302 ) ;
#35 = VECTOR ( 'NONE', #399, 1000.000000000000000 ) ;
#36 = CYLINDRICAL_SURFACE ( 'NONE', #280, 2.500000000000002200 ) ;
#37 = VECTOR ( 'NONE', #384, 1000.000000000000000 ) ;
#38 = LINE ( 'NONE', #424, #110 ) ;
#39 = LINE ( 'NONE', #364, #154 ) ;
#40 = VECTOR ( 'NONE', #434, 1000.000000000000000 ) ;
#41 = ORIENTED_EDGE ( 'NONE', *, *, #226, .T. ) ;
#42 = LINE ( 'NONE', #362, #69 ) ;
#43 = APPROVAL_PERSON_ORGANIZATION ( #196, #232, #336 ) ;
#44 = CIRCLE ( 'NONE', #265, 2.500000000000002200 ) ;
#45 = CALENDAR_DATE ( 2012, 9, 11 ) ;
#46 = FACE_BOUND ( 'NONE', #57, .T. ) ;
#47 = VERTEX_POINT ( 'NONE', #330 ) ;
#48 = VERTEX_POINT ( 'NONE', #312 ) ;
#49 = EDGE_LOOP ( 'NONE', ( #194 ) ) ;
#50 = LINE ( 'NONE', #376, #35 ) ;
#51 = ORIENTED_EDGE ( 'NONE', *, *, #221, .F. ) ;
#52 = EDGE_LOOP ( 'NONE', ( #51, #4, #166, #41 ) ) ;
#53 = EDGE_LOOP ( 'NONE', ( #1, #111, #68, #61 ) ) ;
#54 = FACE_BOUND ( 'NONE', #58, .T. ) ;
#55 = EDGE_LOOP ( 'NONE', ( #174, #90, #179, #176 ) ) ;
#56 = EDGE_LOOP ( 'NONE', ( #108, #200, #198, #153 ) ) ;
#57 = EDGE_LOOP ( 'NONE', ( #188 ) ) ;
#58 = EDGE_LOOP ( 'NONE', ( #15 ) ) ;
#59 = VECTOR ( 'NONE', #409, 1000.000000000000000 ) ;
#60 = LINE ( 'NONE', #411, #40 ) ;
#61 = ORIENTED_EDGE ( 'NONE', *, *, #222, .T. ) ;
#62 = EDGE_LOOP ( 'NONE', ( #152, #163, #136, #186, #8, #182, #181, #162 ) ) ;
#63 = EDGE_LOOP ( 'NONE', ( #71, #79, #96, #157 ) ) ;
#64 = VECTOR ( 'NONE', #431, 1000.000000000000000 ) ;
#65 = DATE_AND_TIME ( #86, #144 ) ;
#66 = FACE_OUTER_BOUND ( 'NONE', #76, .T. ) ;
#67 = LINE ( 'NONE', #421, #87 ) ;
#68 = ORIENTED_EDGE ( 'NONE', *, *, #234, .F. ) ;
#69 = VECTOR ( 'NONE', #417, 1000.000000000000000 ) ;
#70 = VECTOR ( 'NONE', #410, 1000.000000000000000 ) ;
#71 = ORIENTED_EDGE ( 'NONE', *, *, #224, .F. ) ;
#72 = LINE ( 'NONE', #419, #64 ) ;
#73 = LINE ( 'NONE', #428, #24 ) ;
#74 = EDGE_LOOP ( 'NONE', ( #113 ) ) ;
#75 = EDGE_LOOP ( 'NONE', ( #7, #16, #5, #180 ) ) ;
#76 = EDGE_LOOP ( 'NONE', ( #25 ) ) ;
#77 = VERTEX_POINT ( 'NONE', #320 ) ;
#78 = EDGE_LOOP ( 'NONE', ( #134 ) ) ;
#79 = ORIENTED_EDGE ( 'NONE', *, *, #226, .F. ) ;
#80 = PERSON_AND_ORGANIZATION ( #205, #159 ) ;
#81 = ORIENTED_EDGE ( 'NONE', *, *, #237, .T. ) ;
#82 = VERTEX_POINT ( 'NONE', #342 ) ;
#83 = VERTEX_POINT ( 'NONE', #317 ) ;
#84 = PERSON_AND_ORGANIZATION ( #205, #159 ) ;
#85 = PERSON_AND_ORGANIZATION ( #205, #159 ) ;
#86 = CALENDAR_DATE ( 2012, 9, 11 ) ;
#87 = VECTOR ( 'NONE', #426, 1000.000000000000000 ) ;
#88 = VERTEX_POINT ( 'NONE', #304 ) ;
#89 = EDGE_LOOP ( 'NONE', ( #146, #98, #202, #203 ) ) ;
#90 = ORIENTED_EDGE ( 'NONE', *, *, #237, .F. ) ;
#91 = LINE ( 'NONE', #394, #118 ) ;
#92 = VERTEX_POINT ( 'NONE', #322 ) ;
#93 = EDGE_LOOP ( 'NONE', ( #20 ) ) ;
#94 = FACE_OUTER_BOUND ( 'NONE', #53, .T. ) ;
#95 = VECTOR ( 'NONE', #425, 1000.000000000000000 ) ;
#96 = ORIENTED_EDGE ( 'NONE', *, *, #223, .T. ) ;
#97 = CIRCLE ( 'NONE', #264, 2.500000000000002200 ) ;
#98 = ORIENTED_EDGE ( 'NONE', *, *, #222, .F. ) ;
#99 = VECTOR ( 'NONE', #436, 1000.000000000000000 ) ;
#100 = LOCAL_TIME ( 12, 45, 5.000000000000000000, #140 ) ;
#101 = VECTOR ( 'NONE', #326, 1000.000000000000000 ) ;
#102 = VERTEX_POINT ( 'NONE', #416 ) ;
#103 = LINE ( 'NONE', #429, #122 ) ;
#104 = LINE ( 'NONE', #355, #37 ) ;
#105 = LINE ( 'NONE', #292, #187 ) ;
#106 = VERTEX_POINT ( 'NONE', #289 ) ;
#107 = VERTEX_POINT ( 'NONE', #406 ) ;
#108 = ORIENTED_EDGE ( 'NONE', *, *, #282, .F. ) ;
#109 = FACE_OUTER_BOUND ( 'NONE', #62, .T. ) ;
#110 = VECTOR ( 'NONE', #387, 1000.000000000000000 ) ;
#111 = ORIENTED_EDGE ( 'NONE', *, *, #227, .F. ) ;
#112 = ORIENTED_EDGE ( 'NONE', *, *, #250, .F. ) ;
#113 = ORIENTED_EDGE ( 'NONE', *, *, #277, .F. ) ;
#114 = CIRCLE ( 'NONE', #261, 2.500000000000002200 ) ;
#115 = ORIENTED_EDGE ( 'NONE', *, *, #278, .T. ) ;
#116 = SHAPE_DEFINITION_REPRESENTATION ( #286, #207 ) ;
#117 = VERTEX_POINT ( 'NONE', #400 ) ;
#118 = VECTOR ( 'NONE', #371, 1000.000000000000000 ) ;
#119 = CALENDAR_DATE ( 2012, 9, 11 ) ;
#120 = LOCAL_TIME ( 12, 45, 5.000000000000000000, #147 ) ;
#121 = COORDINATED_UNIVERSAL_TIME_OFFSET ( 4, 0, .AHEAD. ) ;
#122 = VECTOR ( 'NONE', #315, 1000.000000000000000 ) ;
#123 = APPROVAL_PERSON_ORGANIZATION ( #132, #257, #309 ) ;
#124 = APPROVAL_DATE_TIME ( #139, #257 ) ;
#125 = DATE_AND_TIME ( #128, #100 ) ;
#126 = VECTOR ( 'NONE', #370, 1000.000000000000000 ) ;
#127 = PERSON_AND_ORGANIZATION ( #205, #159 ) ;
#128 = CALENDAR_DATE ( 2012, 9, 11 ) ;
#129 = APPROVAL_DATE_TIME ( #65, #232 ) ;
#130 = LOCAL_TIME ( 12, 45, 5.000000000000000000, #121 ) ;
#131 = PERSON_AND_ORGANIZATION ( #205, #159 ) ;
#132 = PERSON_AND_ORGANIZATION ( #205, #159 ) ;
#133 = VERTEX_POINT ( 'NONE', #327 ) ;
#134 = ORIENTED_EDGE ( 'NONE', *, *, #277, .T. ) ;
#135 = DATE_AND_TIME ( #197, #120 ) ;
#136 = ORIENTED_EDGE ( 'NONE', *, *, #262, .F. ) ;
#137 = CYLINDRICAL_SURFACE ( 'NONE', #284, 2.500000000000002200 ) ;
#138 = COORDINATED_UNIVERSAL_TIME_OFFSET ( 4, 0, .AHEAD. ) ;
#139 = DATE_AND_TIME ( #119, #130 ) ;
#140 = COORDINATED_UNIVERSAL_TIME_OFFSET ( 4, 0, .AHEAD. ) ;
#141 = APPROVAL_PERSON_ORGANIZATION ( #131, #274, #340 ) ;
#142 = CIRCLE ( 'NONE', #263, 2.500000000000002200 ) ;
#143 = LOCAL_TIME ( 12, 45, 5.000000000000000000, #138 ) ;
#144 = LOCAL_TIME ( 12, 45, 5.000000000000000000, #201 ) ;
#145 = APPROVAL_DATE_TIME ( #32, #274 ) ;
#146 = ORIENTED_EDGE ( 'NONE', *, *, #229, .T. ) ;
#147 = COORDINATED_UNIVERSAL_TIME_OFFSET ( 4, 0, .AHEAD. ) ;
#148 = LINE ( 'NONE', #366, #126 ) ;
#149 = FACE_BOUND ( 'NONE', #74, .T. ) ;
#150 = VERTEX_POINT ( 'NONE', #331 ) ;
#151 = VERTEX_POINT ( 'NONE', #325 ) ;
#152 = ORIENTED_EDGE ( 'NONE', *, *, #234, .T. ) ;
#153 = ORIENTED_EDGE ( 'NONE', *, *, #235, .T. ) ;
#154 = VECTOR ( 'NONE', #369, 1000.000000000000000 ) ;
#155 = ORIENTED_EDGE ( 'NONE', *, *, #250, .T. ) ;
#156 = VECTOR ( 'NONE', #404, 1000.000000000000000 ) ;
#157 = ORIENTED_EDGE ( 'NONE', *, *, #283, .T. ) ;
#158 = LINE ( 'NONE', #437, #95 ) ;
#159 = ORGANIZATION ( 'UNSPECIFIED', 'UNSPECIFIED', '' ) ;
#160 = ORIENTED_EDGE ( 'NONE', *, *, #262, .T. ) ;
#161 = FACE_OUTER_BOUND ( 'NONE', #63, .T. ) ;
#162 = ORIENTED_EDGE ( 'NONE', *, *, #225, .T. ) ;
#163 = ORIENTED_EDGE ( 'NONE', *, *, #233, .F. ) ;
#164 = FACE_OUTER_BOUND ( 'NONE', #75, .T. ) ;
#165 = LINE ( 'NONE', #337, #3 ) ;
#166 = ORIENTED_EDGE ( 'NONE', *, *, #275, .T. ) ;
#167 = FACE_OUTER_BOUND ( 'NONE', #78, .T. ) ;
#168 = VERTEX_POINT ( 'NONE', #324 ) ;
#169 = FACE_OUTER_BOUND ( 'NONE', #28, .T. ) ;
#170 = FACE_OUTER_BOUND ( 'NONE', #89, .T. ) ;
#171 = ORIENTED_EDGE ( 'NONE', *, *, #235, .F. ) ;
#172 = LINE ( 'NONE', #306, #183 ) ;
#173 = LINE ( 'NONE', #307, #175 ) ;
#174 = ORIENTED_EDGE ( 'NONE', *, *, #239, .F. ) ;
#175 = VECTOR ( 'NONE', #313, 1000.000000000000000 ) ;
#176 = ORIENTED_EDGE ( 'NONE', *, *, #227, .T. ) ;
#177 = FACE_OUTER_BOUND ( 'NONE', #26, .T. ) ;
#178 = LINE ( 'NONE', #319, #195 ) ;
#179 = ORIENTED_EDGE ( 'NONE', *, *, #233, .T. ) ;
#180 = ORIENTED_EDGE ( 'NONE', *, *, #230, .T. ) ;
#181 = ORIENTED_EDGE ( 'NONE', *, *, #276, .T. ) ;
#182 = ORIENTED_EDGE ( 'NONE', *, *, #275, .F. ) ;
#183 = VECTOR ( 'NONE', #293, 1000.000000000000000 ) ;
#184 = LINE ( 'NONE', #398, #156 ) ;
#185 = FACE_OUTER_BOUND ( 'NONE', #52, .T. ) ;
#186 = ORIENTED_EDGE ( 'NONE', *, *, #243, .F. ) ;
#187 = VECTOR ( 'NONE', #422, 1000.000000000000000 ) ;
#188 = ORIENTED_EDGE ( 'NONE', *, *, #278, .F. ) ;
#189 = LINE ( 'NONE', #401, #59 ) ;
#190 = VERTEX_POINT ( 'NONE', #328 ) ;
#191 = FACE_OUTER_BOUND ( 'NONE', #93, .T. ) ;
#192 = LINE ( 'NONE', #397, #101 ) ;
#193 = VERTEX_POINT ( 'NONE', #335 ) ;
#194 = ORIENTED_EDGE ( 'NONE', *, *, #246, .F. ) ;
#195 = VECTOR ( 'NONE', #296, 1000.000000000000000 ) ;
#196 = PERSON_AND_ORGANIZATION ( #205, #159 ) ;
#197 = CALENDAR_DATE ( 2012, 9, 11 ) ;
#198 = ORIENTED_EDGE ( 'NONE', *, *, #243, .T. ) ;
#199 = LINE ( 'NONE', #349, #70 ) ;
#200 = ORIENTED_EDGE ( 'NONE', *, *, #283, .F. ) ;
#201 = COORDINATED_UNIVERSAL_TIME_OFFSET ( 4, 0, .AHEAD. ) ;
#202 = ORIENTED_EDGE ( 'NONE', *, *, #225, .F. ) ;
#203 = ORIENTED_EDGE ( 'NONE', *, *, #252, .T. ) ;
#204 = PRODUCT ( 'Êðûøêà íà óãîë âåðòèêàëüíûé âíåøíèé CDSD 90_38282', 'Êðûøêà íà óãîë âåðòèêàëüíûé âíåøíèé CDSD 90_38282', '', ( #314 ) ) ;
#205 = PERSON ( 'UNSPECIFIED', 'UNSPECIFIED', 'UNSPECIFIED', ('UNSPECIFIED'), ('UNSPECIFIED'), ('UNSPECIFIED') ) ;
#206 = MANIFOLD_SOLID_BREP ( 'Âûðåç-Âûòÿíóòü1', #14 ) ;
#207 = ADVANCED_BREP_SHAPE_REPRESENTATION ( '¦¨v°úð ýð ºóþû òõ¨ªøúðû¹ývù òýõ°ýøù CDSD 90_38282', ( #206, #259 ), #240 ) ;
#208 = UNCERTAINTY_MEASURE_WITH_UNIT (LENGTH_MEASURE( 1.000000000000000100E-005 ), #413, 'distance_accuracy_value', 'NONE');
#209 = ADVANCED_FACE ( 'NONE', ( #9 ), #333, .T. ) ;
#210 = ADVANCED_FACE ( 'NONE', ( #109 ), #348, .F. ) ;
#211 = ADVANCED_FACE ( 'NONE', ( #161 ), #358, .T. ) ;
#212 = ADVANCED_FACE ( 'NONE', ( #191, #167 ), #36, .F. ) ;
#213 = ADVANCED_FACE ( 'NONE', ( #66, #29 ), #137, .F. ) ;
#214 = ADVANCED_FACE ( 'NONE', ( #27, #54, #30 ), #393, .T. ) ;
#215 = ADVANCED_FACE ( 'NONE', ( #177 ), #295, .T. ) ;
#216 = ADVANCED_FACE ( 'NONE', ( #94 ), #287, .F. ) ;
#217 = ADVANCED_FACE ( 'NONE', ( #46, #149, #170 ), #365, .F. ) ;
#218 = ADVANCED_FACE ( 'NONE', ( #169 ), #310, .T. ) ;
#219 = ADVANCED_FACE ( 'NONE', ( #185 ), #298, .T. ) ;
#220 = ADVANCED_FACE ( 'NONE', ( #164 ), #339, .F. ) ;
#221 = EDGE_CURVE ( 'NONE', #133, #193, #173, .T. ) ;
#222 = EDGE_CURVE ( 'NONE', #77, #48, #192, .T. ) ;
#223 = EDGE_CURVE ( 'NONE', #88, #151, #105, .T. ) ;
#224 = EDGE_CURVE ( 'NONE', #193, #168, #172, .T. ) ;
#225 = EDGE_CURVE ( 'NONE', #34, #77, #184, .T. ) ;
#226 = EDGE_CURVE ( 'NONE', #88, #193, #165, .T. ) ;
#227 = EDGE_CURVE ( 'NONE', #150, #92, #178, .T. ) ;
#228 = EDGE_CURVE ( 'NONE', #48, #92, #158, .T. ) ;
#229 = EDGE_CURVE ( 'NONE', #47, #48, #189, .T. ) ;
#230 = EDGE_CURVE ( 'NONE', #82, #133, #199, .T. ) ;
#231 = CC_DESIGN_PERSON_AND_ORGANIZATION_ASSIGNMENT ( #127, #414, ( #258 ) ) ;
#232 = APPROVAL ( #345, 'UNSPECIFIED' ) ;
#233 = EDGE_CURVE ( 'NONE', #83, #150, #42, .T. ) ;
#234 = EDGE_CURVE ( 'NONE', #77, #150, #67, .T. ) ;
#235 = EDGE_CURVE ( 'NONE', #6, #190, #73, .T. ) ;
#236 = AXIS2_PLACEMENT_3D ( 'NONE', #332, #352, #353 ) ;
#237 = EDGE_CURVE ( 'NONE', #83, #31, #72, .T. ) ;
#238 = AXIS2_PLACEMENT_3D ( 'NONE', #329, #344, #346 ) ;
#239 = EDGE_CURVE ( 'NONE', #31, #92, #60, .T. ) ;
#240 =( GEOMETRIC_REPRESENTATION_CONTEXT ( 3 ) GLOBAL_UNCERTAINTY_ASSIGNED_CONTEXT ( ( #208 ) ) GLOBAL_UNIT_ASSIGNED_CONTEXT ( ( #413, #415, #402 ) ) REPRESENTATION_CONTEXT ( 'NONE', 'WORKASPACE' ) );
#241 = AXIS2_PLACEMENT_3D ( 'NONE', #338, #363, #367 ) ;
#242 = CC_DESIGN_PERSON_AND_ORGANIZATION_ASSIGNMENT ( #80, #356, ( #273 ) ) ;
#243 = EDGE_CURVE ( 'NONE', #151, #6, #2, .T. ) ;
#244 = AXIS2_PLACEMENT_3D ( 'NONE', #297, #291, #311 ) ;
#245 = CC_DESIGN_SECURITY_CLASSIFICATION ( #273, ( #255 ) ) ;
#246 = EDGE_CURVE ( 'NONE', #117, #117, #44, .T. ) ;
#247 = AXIS2_PLACEMENT_3D ( 'NONE', #382, #388, #396 ) ;
#248 = CC_DESIGN_PERSON_AND_ORGANIZATION_ASSIGNMENT ( #85, #334, ( #255 ) ) ;
#249 = EDGE_CURVE ( 'NONE', #133, #47, #103, .T. ) ;
#250 = EDGE_CURVE ( 'NONE', #190, #31, #23, .T. ) ;
#251 = AXIS2_PLACEMENT_3D ( 'NONE', #395, #290, #288 ) ;
#252 = EDGE_CURVE ( 'NONE', #34, #47, #104, .T. ) ;
#253 = CC_DESIGN_PERSON_AND_ORGANIZATION_ASSIGNMENT ( #17, #420, ( #255 ) ) ;
#254 = CC_DESIGN_DATE_AND_TIME_ASSIGNMENT ( #125, #343, ( #258 ) ) ;
#255 = PRODUCT_DEFINITION_FORMATION_WITH_SPECIFIED_SOURCE ( 'ANY', '', #204, .NOT_KNOWN. ) ;
#256 = CC_DESIGN_APPROVAL ( #257, ( #258 ) ) ;
#257 = APPROVAL ( #392, 'UNSPECIFIED' ) ;
#258 = PRODUCT_DEFINITION ( 'UNKNOWN', '', #255, #285 ) ;
#259 = AXIS2_PLACEMENT_3D ( 'NONE', #427, #379, #375 ) ;
#260 = CC_DESIGN_PERSON_AND_ORGANIZATION_ASSIGNMENT ( #84, #389, ( #204 ) ) ;
#261 = AXIS2_PLACEMENT_3D ( 'NONE', #405, #372, #373 ) ;
#262 = EDGE_CURVE ( 'NONE', #6, #83, #39, .T. ) ;
#263 = AXIS2_PLACEMENT_3D ( 'NONE', #391, #385, #323 ) ;
#264 = AXIS2_PLACEMENT_3D ( 'NONE', #381, #380, #374 ) ;
#265 = AXIS2_PLACEMENT_3D ( 'NONE', #294, #299, #305 ) ;
#266 = AXIS2_PLACEMENT_3D ( 'NONE', #418, #403, #407 ) ;
#267 = AXIS2_PLACEMENT_3D ( 'NONE', #360, #359, #354 ) ;
#268 = PRODUCT_RELATED_PRODUCT_CATEGORY ( 'detail', '', ( #204 ) ) ;
#269 = AXIS2_PLACEMENT_3D ( 'NONE', #390, #303, #423 ) ;
#270 = AXIS2_PLACEMENT_3D ( 'NONE', #357, #321, #300 ) ;
#271 = CC_DESIGN_DATE_AND_TIME_ASSIGNMENT ( #135, #347, ( #273 ) ) ;
#272 = CC_DESIGN_APPROVAL ( #274, ( #255 ) ) ;
#273 = SECURITY_CLASSIFICATION ( '', '', #412 ) ;
#274 = APPROVAL ( #341, 'UNSPECIFIED' ) ;
#275 = EDGE_CURVE ( 'NONE', #82, #88, #148, .T. ) ;
#276 = EDGE_CURVE ( 'NONE', #82, #34, #50, .T. ) ;
#277 = EDGE_CURVE ( 'NONE', #102, #102, #142, .T. ) ;
#278 = EDGE_CURVE ( 'NONE', #106, #106, #97, .T. ) ;
#279 = EDGE_CURVE ( 'NONE', #107, #107, #114, .T. ) ;
#280 = AXIS2_PLACEMENT_3D ( 'NONE', #368, #361, #351 ) ;
#281 = CC_DESIGN_APPROVAL ( #232, ( #273 ) ) ;
#282 = EDGE_CURVE ( 'NONE', #168, #190, #91, .T. ) ;
#283 = EDGE_CURVE ( 'NONE', #151, #168, #38, .T. ) ;
#284 = AXIS2_PLACEMENT_3D ( 'NONE', #378, #383, #377 ) ;
#285 = DESIGN_CONTEXT ( 'detailed design', #386, 'design' ) ;
#286 = PRODUCT_DEFINITION_SHAPE ( 'NONE', 'NONE',  #258 ) ;
#287 = PLANE ( 'NONE',  #269 ) ;
#288 = DIRECTION ( 'NONE',  ( -0.0000000000000000000, 0.0000000000000000000, -1.000000000000000000 ) ) ;
#289 = CARTESIAN_POINT ( 'NONE',  ( 0.0000000000000000000, 0.0000000000000000000, 218.5000000000000000 ) ) ;
#290 = DIRECTION ( 'NONE',  ( 1.000000000000000000, 0.0000000000000000000, -0.0000000000000000000 ) ) ;
#291 = DIRECTION ( 'NONE',  ( 0.0000000000000000000, 1.000000000000000000, 0.0000000000000000000 ) ) ;
#292 = CARTESIAN_POINT ( 'NONE',  ( -51.79999999999999700, 0.0000000000000000000, 231.0000000000000000 ) ) ;
#293 = DIRECTION ( 'NONE',  ( 0.0000000000000000000, 1.000000000000000000, 0.0000000000000000000 ) ) ;
#294 = CARTESIAN_POINT ( 'NONE',  ( 0.0000000000000000000, 0.8000000000000000400, 216.0000000000000000 ) ) ;
#295 = PLANE ( 'NONE',  #251 ) ;
#296 = DIRECTION ( 'NONE',  ( -0.0000000000000000000, -0.0000000000000000000, -1.000000000000000000 ) ) ;
#297 = CARTESIAN_POINT ( 'NONE',  ( -51.00000000000000000, 0.0000000000000000000, 231.0000000000000000 ) ) ;
#298 = PLANE ( 'NONE',  #266 ) ;
#299 = DIRECTION ( 'NONE',  ( -0.0000000000000000000, 1.000000000000000000, -0.0000000000000000000 ) ) ;
#300 = DIRECTION ( 'NONE',  ( 0.0000000000000000000, 0.0000000000000000000, 1.000000000000000000 ) ) ;
#301 = APPLICATION_PROTOCOL_DEFINITION ( 'international standard', 'config_control_design', 1994, #408 ) ;
#302 = CARTESIAN_POINT ( 'NONE',  ( -51.00000000000000000, 0.0000000000000000000, 231.0000000000000000 ) ) ;
#303 = DIRECTION ( 'NONE',  ( 1.000000000000000000, 0.0000000000000000000, -0.0000000000000000000 ) ) ;
#304 = CARTESIAN_POINT ( 'NONE',  ( -51.79999999999999700, -14.00000000000000000, 231.0000000000000000 ) ) ;
#305 = DIRECTION ( 'NONE',  ( 0.0000000000000000000, 0.0000000000000000000, -1.000000000000000000 ) ) ;
#306 = CARTESIAN_POINT ( 'NONE',  ( -51.79999999999999700, 0.0000000000000000000, 0.0000000000000000000 ) ) ;
#307 = CARTESIAN_POINT ( 'NONE',  ( -51.00000000000000000, -14.00000000000000000, 0.0000000000000000000 ) ) ;
#308 = CARTESIAN_POINT ( 'NONE',  ( 51.79999999999999700, 0.8000000000000000400, 231.0000000000000000 ) ) ;
#309 = APPROVAL_ROLE ( '' ) ;
#310 = PLANE ( 'NONE',  #267 ) ;
#311 = DIRECTION ( 'NONE',  ( 0.0000000000000000000, -0.0000000000000000000, 1.000000000000000000 ) ) ;
#312 = CARTESIAN_POINT ( 'NONE',  ( 51.00000000000000000, 0.0000000000000000000, 0.0000000000000000000 ) ) ;
#313 = DIRECTION ( 'NONE',  ( -1.000000000000000000, 0.0000000000000000000, 0.0000000000000000000 ) ) ;
#314 = MECHANICAL_CONTEXT ( 'NONE', #408, 'mechanical' ) ;
#315 = DIRECTION ( 'NONE',  ( -0.0000000000000000000, 1.000000000000000000, -0.0000000000000000000 ) ) ;
#316 = APPLICATION_PROTOCOL_DEFINITION ( 'international standard', 'config_control_design', 1994, #386 ) ;
#317 = CARTESIAN_POINT ( 'NONE',  ( 51.79999999999999700, -14.00000000000000000, 231.0000000000000000 ) ) ;
#318 = CARTESIAN_POINT ( 'NONE',  ( 51.79999999999999700, -14.00000000000000000, 0.0000000000000000000 ) ) ;
#319 = CARTESIAN_POINT ( 'NONE',  ( 51.00000000000000000, -14.00000000000000000, 231.0000000000000000 ) ) ;
#320 = CARTESIAN_POINT ( 'NONE',  ( 51.00000000000000000, 0.0000000000000000000, 231.0000000000000000 ) ) ;
#321 = DIRECTION ( 'NONE',  ( -1.000000000000000000, 0.0000000000000000000, 0.0000000000000000000 ) ) ;
#322 = CARTESIAN_POINT ( 'NONE',  ( 51.00000000000000000, -14.00000000000000000, 0.0000000000000000000 ) ) ;
#323 = DIRECTION ( 'NONE',  ( 0.0000000000000000000, 0.0000000000000000000, 1.000000000000000000 ) ) ;
#324 = CARTESIAN_POINT ( 'NONE',  ( -51.79999999999999700, 0.8000000000000000400, 0.0000000000000000000 ) ) ;
#325 = CARTESIAN_POINT ( 'NONE',  ( -51.79999999999999700, 0.8000000000000000400, 231.0000000000000000 ) ) ;
#326 = DIRECTION ( 'NONE',  ( -0.0000000000000000000, -0.0000000000000000000, -1.000000000000000000 ) ) ;
#327 = CARTESIAN_POINT ( 'NONE',  ( -51.00000000000000000, -14.00000000000000000, 0.0000000000000000000 ) ) ;
#328 = CARTESIAN_POINT ( 'NONE',  ( 51.79999999999999700, 0.8000000000000000400, 0.0000000000000000000 ) ) ;
#329 = CARTESIAN_POINT ( 'NONE',  ( 51.79999999999999700, -14.00000000000000000, 231.0000000000000000 ) ) ;
#330 = CARTESIAN_POINT ( 'NONE',  ( -51.00000000000000000, 0.0000000000000000000, 0.0000000000000000000 ) ) ;
#331 = CARTESIAN_POINT ( 'NONE',  ( 51.00000000000000000, -14.00000000000000000, 231.0000000000000000 ) ) ;
#332 = CARTESIAN_POINT ( 'NONE',  ( 0.0000000000000000000, 0.0000000000000000000, 231.0000000000000000 ) ) ;
#333 = PLANE ( 'NONE',  #238 ) ;
#334 = PERSON_AND_ORGANIZATION_ROLE ( 'creator' ) ;
#335 = CARTESIAN_POINT ( 'NONE',  ( -51.79999999999999700, -14.00000000000000000, 0.0000000000000000000 ) ) ;
#336 = APPROVAL_ROLE ( '' ) ;
#337 = CARTESIAN_POINT ( 'NONE',  ( -51.79999999999999700, -14.00000000000000000, 231.0000000000000000 ) ) ;
#338 = CARTESIAN_POINT ( 'NONE',  ( -51.79999999999999700, 0.0000000000000000000, 231.0000000000000000 ) ) ;
#339 = PLANE ( 'NONE',  #270 ) ;
#340 = APPROVAL_ROLE ( '' ) ;
#341 = APPROVAL_STATUS ( 'not_yet_approved' ) ;
#342 = CARTESIAN_POINT ( 'NONE',  ( -51.00000000000000000, -14.00000000000000000, 231.0000000000000000 ) ) ;
#343 = DATE_TIME_ROLE ( 'creation_date' ) ;
#344 = DIRECTION ( 'NONE',  ( 0.0000000000000000000, -1.000000000000000000, 0.0000000000000000000 ) ) ;
#345 = APPROVAL_STATUS ( 'not_yet_approved' ) ;
#346 = DIRECTION ( 'NONE',  ( 0.0000000000000000000, -0.0000000000000000000, -1.000000000000000000 ) ) ;
#347 = DATE_TIME_ROLE ( 'classification_date' ) ;
#348 = PLANE ( 'NONE',  #236 ) ;
#349 = CARTESIAN_POINT ( 'NONE',  ( -51.00000000000000000, -14.00000000000000000, 231.0000000000000000 ) ) ;
#350 = DIRECTION ( 'NONE',  ( -0.0000000000000000000, -1.000000000000000000, 0.0000000000000000000 ) ) ;
#351 = DIRECTION ( 'NONE',  ( 0.0000000000000000000, 0.0000000000000000000, 1.000000000000000000 ) ) ;
#352 = DIRECTION ( 'NONE',  ( -0.0000000000000000000, 0.0000000000000000000, -1.000000000000000000 ) ) ;
#353 = DIRECTION ( 'NONE',  ( -1.000000000000000000, 0.0000000000000000000, 0.0000000000000000000 ) ) ;
#354 = DIRECTION ( 'NONE',  ( -1.000000000000000000, 0.0000000000000000000, 0.0000000000000000000 ) ) ;
#355 = CARTESIAN_POINT ( 'NONE',  ( -51.00000000000000000, 0.0000000000000000000, 231.0000000000000000 ) ) ;
#356 = PERSON_AND_ORGANIZATION_ROLE ( 'classification_officer' ) ;
#357 = CARTESIAN_POINT ( 'NONE',  ( -51.00000000000000000, 0.0000000000000000000, 231.0000000000000000 ) ) ;
#358 = PLANE ( 'NONE',  #241 ) ;
#359 = DIRECTION ( 'NONE',  ( -0.0000000000000000000, 0.0000000000000000000, -1.000000000000000000 ) ) ;
#360 = CARTESIAN_POINT ( 'NONE',  ( 0.0000000000000000000, 0.0000000000000000000, 0.0000000000000000000 ) ) ;
#361 = DIRECTION ( 'NONE',  ( -0.0000000000000000000, 1.000000000000000000, -0.0000000000000000000 ) ) ;
#362 = CARTESIAN_POINT ( 'NONE',  ( 51.79999999999999700, -14.00000000000000000, 231.0000000000000000 ) ) ;
#363 = DIRECTION ( 'NONE',  ( -1.000000000000000000, 0.0000000000000000000, 0.0000000000000000000 ) ) ;
#364 = CARTESIAN_POINT ( 'NONE',  ( 51.79999999999999700, 0.0000000000000000000, 231.0000000000000000 ) ) ;
#365 = PLANE ( 'NONE',  #244 ) ;
#366 = CARTESIAN_POINT ( 'NONE',  ( -51.00000000000000000, -14.00000000000000000, 231.0000000000000000 ) ) ;
#367 = DIRECTION ( 'NONE',  ( 0.0000000000000000000, 0.0000000000000000000, 1.000000000000000000 ) ) ;
#368 = CARTESIAN_POINT ( 'NONE',  ( 1.734723475976807100E-015, -14.00099999999999900, 14.99999999999999300 ) ) ;
#369 = DIRECTION ( 'NONE',  ( -0.0000000000000000000, -1.000000000000000000, 0.0000000000000000000 ) ) ;
#370 = DIRECTION ( 'NONE',  ( -1.000000000000000000, 0.0000000000000000000, 0.0000000000000000000 ) ) ;
#371 = DIRECTION ( 'NONE',  ( 1.000000000000000000, 0.0000000000000000000, 0.0000000000000000000 ) ) ;
#372 = DIRECTION ( 'NONE',  ( 0.0000000000000000000, 1.000000000000000000, 0.0000000000000000000 ) ) ;
#373 = DIRECTION ( 'NONE',  ( 0.0000000000000000000, 0.0000000000000000000, 1.000000000000000000 ) ) ;
#374 = DIRECTION ( 'NONE',  ( 0.0000000000000000000, 0.0000000000000000000, 1.000000000000000000 ) ) ;
#375 = DIRECTION ( 'NONE',  ( 1.000000000000000000, 0.0000000000000000000, 0.0000000000000000000 ) ) ;
#376 = CARTESIAN_POINT ( 'NONE',  ( -51.00000000000000000, 0.0000000000000000000, 231.0000000000000000 ) ) ;
#377 = DIRECTION ( 'NONE',  ( 0.0000000000000000000, 0.0000000000000000000, 1.000000000000000000 ) ) ;
#378 = CARTESIAN_POINT ( 'NONE',  ( 0.0000000000000000000, -14.00099999999999900, 216.0000000000000000 ) ) ;
#379 = DIRECTION ( 'NONE',  ( 0.0000000000000000000, 0.0000000000000000000, 1.000000000000000000 ) ) ;
#380 = DIRECTION ( 'NONE',  ( -0.0000000000000000000, -1.000000000000000000, -0.0000000000000000000 ) ) ;
#381 = CARTESIAN_POINT ( 'NONE',  ( 0.0000000000000000000, 0.0000000000000000000, 216.0000000000000000 ) ) ;
#382 = CARTESIAN_POINT ( 'NONE',  ( -51.00000000000000000, 0.8000000000000000400, 231.0000000000000000 ) ) ;
#383 = DIRECTION ( 'NONE',  ( -0.0000000000000000000, 1.000000000000000000, -0.0000000000000000000 ) ) ;
#384 = DIRECTION ( 'NONE',  ( -0.0000000000000000000, -0.0000000000000000000, -1.000000000000000000 ) ) ;
#385 = DIRECTION ( 'NONE',  ( -0.0000000000000000000, -1.000000000000000000, -0.0000000000000000000 ) ) ;
#386 = APPLICATION_CONTEXT ( 'configuration controlled 3d designs of mechanical parts and assemblies' ) ;
#387 = DIRECTION ( 'NONE',  ( -0.0000000000000000000, -0.0000000000000000000, -1.000000000000000000 ) ) ;
#388 = DIRECTION ( 'NONE',  ( 0.0000000000000000000, 1.000000000000000000, 0.0000000000000000000 ) ) ;
#389 = PERSON_AND_ORGANIZATION_ROLE ( 'design_owner' ) ;
#390 = CARTESIAN_POINT ( 'NONE',  ( 51.00000000000000000, 0.0000000000000000000, 231.0000000000000000 ) ) ;
#391 = CARTESIAN_POINT ( 'NONE',  ( 1.734723475976807100E-015, 0.0000000000000000000, 14.99999999999999300 ) ) ;
#392 = APPROVAL_STATUS ( 'not_yet_approved' ) ;
#393 = PLANE ( 'NONE',  #247 ) ;
#394 = CARTESIAN_POINT ( 'NONE',  ( -51.00000000000000000, 0.8000000000000000400, 0.0000000000000000000 ) ) ;
#395 = CARTESIAN_POINT ( 'NONE',  ( 51.79999999999999700, 0.0000000000000000000, 231.0000000000000000 ) ) ;
#396 = DIRECTION ( 'NONE',  ( 0.0000000000000000000, -0.0000000000000000000, 1.000000000000000000 ) ) ;
#397 = CARTESIAN_POINT ( 'NONE',  ( 51.00000000000000000, 0.0000000000000000000, 231.0000000000000000 ) ) ;
#398 = CARTESIAN_POINT ( 'NONE',  ( -51.00000000000000000, 0.0000000000000000000, 231.0000000000000000 ) ) ;
#399 = DIRECTION ( 'NONE',  ( -0.0000000000000000000, 1.000000000000000000, -0.0000000000000000000 ) ) ;
#400 = CARTESIAN_POINT ( 'NONE',  ( 0.0000000000000000000, 0.8000000000000000400, 213.5000000000000000 ) ) ;
#401 = CARTESIAN_POINT ( 'NONE',  ( -51.00000000000000000, 0.0000000000000000000, 0.0000000000000000000 ) ) ;
#402 =( NAMED_UNIT ( * ) SI_UNIT ( $, .STERADIAN. ) SOLID_ANGLE_UNIT ( ) );
#403 = DIRECTION ( 'NONE',  ( 0.0000000000000000000, -1.000000000000000000, 0.0000000000000000000 ) ) ;
#404 = DIRECTION ( 'NONE',  ( 1.000000000000000000, 0.0000000000000000000, 0.0000000000000000000 ) ) ;
#405 = CARTESIAN_POINT ( 'NONE',  ( 1.734723475976807100E-015, 0.8000000000000000400, 14.99999999999999300 ) ) ;
#406 = CARTESIAN_POINT ( 'NONE',  ( 1.734723475976807100E-015, 0.8000000000000000400, 17.49999999999999600 ) ) ;
#407 = DIRECTION ( 'NONE',  ( 0.0000000000000000000, -0.0000000000000000000, -1.000000000000000000 ) ) ;
#408 = APPLICATION_CONTEXT ( 'configuration controlled 3d designs of mechanical parts and assemblies' ) ;
#409 = DIRECTION ( 'NONE',  ( 1.000000000000000000, 0.0000000000000000000, 0.0000000000000000000 ) ) ;
#410 = DIRECTION ( 'NONE',  ( -0.0000000000000000000, -0.0000000000000000000, -1.000000000000000000 ) ) ;
#411 = CARTESIAN_POINT ( 'NONE',  ( 51.79999999999999700, -14.00000000000000000, 0.0000000000000000000 ) ) ;
#412 = SECURITY_CLASSIFICATION_LEVEL ( 'unclassified' ) ;
#413 =( LENGTH_UNIT ( ) NAMED_UNIT ( * ) SI_UNIT ( .MILLI., .METRE. ) );
#414 = PERSON_AND_ORGANIZATION_ROLE ( 'creator' ) ;
#415 =( NAMED_UNIT ( * ) PLANE_ANGLE_UNIT ( ) SI_UNIT ( $, .RADIAN. ) );
#416 = CARTESIAN_POINT ( 'NONE',  ( 1.734723475976807100E-015, 0.0000000000000000000, 17.49999999999999600 ) ) ;
#417 = DIRECTION ( 'NONE',  ( -1.000000000000000000, 0.0000000000000000000, 0.0000000000000000000 ) ) ;
#418 = CARTESIAN_POINT ( 'NONE',  ( -51.00000000000000000, -14.00000000000000000, 231.0000000000000000 ) ) ;
#419 = CARTESIAN_POINT ( 'NONE',  ( 51.79999999999999700, -14.00000000000000000, 231.0000000000000000 ) ) ;
#420 = PERSON_AND_ORGANIZATION_ROLE ( 'design_supplier' ) ;
#421 = CARTESIAN_POINT ( 'NONE',  ( 51.00000000000000000, 0.0000000000000000000, 231.0000000000000000 ) ) ;
#422 = DIRECTION ( 'NONE',  ( 0.0000000000000000000, 1.000000000000000000, 0.0000000000000000000 ) ) ;
#423 = DIRECTION ( 'NONE',  ( -0.0000000000000000000, 0.0000000000000000000, -1.000000000000000000 ) ) ;
#424 = CARTESIAN_POINT ( 'NONE',  ( -51.79999999999999700, 0.8000000000000000400, 231.0000000000000000 ) ) ;
#425 = DIRECTION ( 'NONE',  ( 0.0000000000000000000, -1.000000000000000000, 0.0000000000000000000 ) ) ;
#426 = DIRECTION ( 'NONE',  ( 0.0000000000000000000, -1.000000000000000000, 0.0000000000000000000 ) ) ;
#427 = CARTESIAN_POINT ( 'NONE',  ( 0.0000000000000000000, 0.0000000000000000000, 0.0000000000000000000 ) ) ;
#428 = CARTESIAN_POINT ( 'NONE',  ( 51.79999999999999700, 0.8000000000000000400, 231.0000000000000000 ) ) ;
#429 = CARTESIAN_POINT ( 'NONE',  ( -51.00000000000000000, 0.0000000000000000000, 0.0000000000000000000 ) ) ;
#430 = DIRECTION ( 'NONE',  ( -0.0000000000000000000, -0.0000000000000000000, -1.000000000000000000 ) ) ;
#431 = DIRECTION ( 'NONE',  ( -0.0000000000000000000, -0.0000000000000000000, -1.000000000000000000 ) ) ;
#432 = DIRECTION ( 'NONE',  ( -0.0000000000000000000, -0.0000000000000000000, -1.000000000000000000 ) ) ;
#433 = CARTESIAN_POINT ( 'NONE',  ( 51.79999999999999700, 0.0000000000000000000, 0.0000000000000000000 ) ) ;
#434 = DIRECTION ( 'NONE',  ( -1.000000000000000000, 0.0000000000000000000, 0.0000000000000000000 ) ) ;
#435 = CARTESIAN_POINT ( 'NONE',  ( -51.00000000000000000, 0.8000000000000000400, 231.0000000000000000 ) ) ;
#436 = DIRECTION ( 'NONE',  ( 1.000000000000000000, 0.0000000000000000000, 0.0000000000000000000 ) ) ;
#437 = CARTESIAN_POINT ( 'NONE',  ( 51.00000000000000000, 0.0000000000000000000, 0.0000000000000000000 ) ) ;
ENDSEC;
END-ISO-10303-21;
