ISO-10303-21;
HEADER;
FILE_DESCRIPTION (( 'STEP AP203' ),
    '1' );
FILE_NAME ('Êðûøêà íà óãîë âåðòèêàëüíûé âíåøíèé CDV 90_38347.STEP',
    '2012-11-09T08:45:11',
    ( 'Àñååâ' ),
    ( '' ),
    'SwSTEP 2.0',
    'SolidWorks 2012',
    '' );
FILE_SCHEMA (( 'CONFIG_CONTROL_DESIGN' ));
ENDSEC;

DATA;
#1 = DIRECTION ( 'NONE',  ( 1.000000000000000000, 0.0000000000000000000, -0.0000000000000000000 ) ) ;
#2 = CARTESIAN_POINT ( 'NONE',  ( -301.0000000000000000, -14.00000000000000000, 210.0000000000000000 ) ) ;
#3 = CARTESIAN_POINT ( 'NONE',  ( -301.0000000000000000, 0.0000000000000000000, 210.0000000000000000 ) ) ;
#4 = DIRECTION ( 'NONE',  ( -0.0000000000000000000, 0.0000000000000000000, -1.000000000000000000 ) ) ;
#5 = CARTESIAN_POINT ( 'NONE',  ( -301.0000000000000000, 0.0000000000000000000, 0.0000000000000000000 ) ) ;
#6 = DIRECTION ( 'NONE',  ( -0.0000000000000000000, 1.000000000000000000, -0.0000000000000000000 ) ) ;
#7 = DIRECTION ( 'NONE',  ( 1.000000000000000000, 0.0000000000000000000, 0.0000000000000000000 ) ) ;
#8 = PLANE ( 'NONE',  #331 ) ;
#9 = CARTESIAN_POINT ( 'NONE',  ( 301.0000000000000000, -14.00000000000000000, 210.0000000000000000 ) ) ;
#10 = DIRECTION ( 'NONE',  ( 0.0000000000000000000, -1.000000000000000000, 0.0000000000000000000 ) ) ;
#11 = DIRECTION ( 'NONE',  ( -0.0000000000000000000, -0.0000000000000000000, -1.000000000000000000 ) ) ;
#12 = DIRECTION ( 'NONE',  ( -0.0000000000000000000, -0.0000000000000000000, -1.000000000000000000 ) ) ;
#13 = DIRECTION ( 'NONE',  ( -0.0000000000000000000, -0.0000000000000000000, -1.000000000000000000 ) ) ;
#14 = CARTESIAN_POINT ( 'NONE',  ( -301.0000000000000000, -14.00000000000000000, 210.0000000000000000 ) ) ;
#15 = CARTESIAN_POINT ( 'NONE',  ( -301.0000000000000000, 0.0000000000000000000, 210.0000000000000000 ) ) ;
#16 = DIRECTION ( 'NONE',  ( -1.000000000000000000, 0.0000000000000000000, 0.0000000000000000000 ) ) ;
#17 = DIRECTION ( 'NONE',  ( -0.0000000000000000000, -1.000000000000000000, 0.0000000000000000000 ) ) ;
#18 = DIRECTION ( 'NONE',  ( -0.0000000000000000000, -0.0000000000000000000, -1.000000000000000000 ) ) ;
#19 = CARTESIAN_POINT ( 'NONE',  ( -301.8000000000000100, 0.0000000000000000000, 0.0000000000000000000 ) ) ;
#20 = CARTESIAN_POINT ( 'NONE',  ( 301.8000000000000100, 0.8000000000000000400, 210.0000000000000000 ) ) ;
#21 = DIRECTION ( 'NONE',  ( 1.000000000000000000, 0.0000000000000000000, 0.0000000000000000000 ) ) ;
#22 = DIRECTION ( 'NONE',  ( -0.0000000000000000000, -0.0000000000000000000, -1.000000000000000000 ) ) ;
#23 = CARTESIAN_POINT ( 'NONE',  ( 301.8000000000000100, 0.0000000000000000000, 210.0000000000000000 ) ) ;
#24 = DIRECTION ( 'NONE',  ( 0.0000000000000000000, -1.000000000000000000, 0.0000000000000000000 ) ) ;
#25 = CARTESIAN_POINT ( 'NONE',  ( 0.0000000000000000000, 0.0000000000000000000, 210.0000000000000000 ) ) ;
#26 = PLANE ( 'NONE',  #323 ) ;
#27 = CARTESIAN_POINT ( 'NONE',  ( 301.0000000000000000, 0.0000000000000000000, 210.0000000000000000 ) ) ;
#28 = CARTESIAN_POINT ( 'NONE',  ( -301.8000000000000100, 0.8000000000000000400, 0.0000000000000000000 ) ) ;
#29 = CARTESIAN_POINT ( 'NONE',  ( 301.0000000000000000, 0.0000000000000000000, 0.0000000000000000000 ) ) ;
#30 = DIRECTION ( 'NONE',  ( 0.0000000000000000000, -0.0000000000000000000, -1.000000000000000000 ) ) ;
#31 = DIRECTION ( 'NONE',  ( 0.0000000000000000000, -1.000000000000000000, 0.0000000000000000000 ) ) ;
#32 = CARTESIAN_POINT ( 'NONE',  ( 0.0000000000000000000, 0.0000000000000000000, 0.0000000000000000000 ) ) ;
#33 = DIRECTION ( 'NONE',  ( 0.0000000000000000000, 0.0000000000000000000, 1.000000000000000000 ) ) ;
#34 = PLANE ( 'NONE',  #338 ) ;
#35 = CARTESIAN_POINT ( 'NONE',  ( 301.8000000000000100, -14.00000000000000000, 210.0000000000000000 ) ) ;
#36 = PLANE ( 'NONE',  #339 ) ;
#37 = DIRECTION ( 'NONE',  ( -0.0000000000000000000, 0.0000000000000000000, -1.000000000000000000 ) ) ;
#38 = DIRECTION ( 'NONE',  ( 0.0000000000000000000, -0.0000000000000000000, -1.000000000000000000 ) ) ;
#39 = CARTESIAN_POINT ( 'NONE',  ( -301.8000000000000100, 0.8000000000000000400, 210.0000000000000000 ) ) ;
#40 = CARTESIAN_POINT ( 'NONE',  ( 301.8000000000000100, -14.00000000000000000, 0.0000000000000000000 ) ) ;
#41 = CARTESIAN_POINT ( 'NONE',  ( -301.8000000000000100, 0.0000000000000000000, 210.0000000000000000 ) ) ;
#42 = CARTESIAN_POINT ( 'NONE',  ( 1.734723475976807100E-015, 0.0000000000000000000, 194.9999999999999700 ) ) ;
#43 = CARTESIAN_POINT ( 'NONE',  ( 301.0000000000000000, 0.0000000000000000000, 210.0000000000000000 ) ) ;
#44 = DIRECTION ( 'NONE',  ( -0.0000000000000000000, 1.000000000000000000, -0.0000000000000000000 ) ) ;
#45 = CARTESIAN_POINT ( 'NONE',  ( -301.0000000000000000, 0.0000000000000000000, 0.0000000000000000000 ) ) ;
#46 = DIRECTION ( 'NONE',  ( -0.0000000000000000000, -0.0000000000000000000, -1.000000000000000000 ) ) ;
#47 = PLANE ( 'NONE',  #386 ) ;
#48 = DIRECTION ( 'NONE',  ( -1.000000000000000000, 0.0000000000000000000, 0.0000000000000000000 ) ) ;
#49 = DIRECTION ( 'NONE',  ( 1.000000000000000000, 0.0000000000000000000, 0.0000000000000000000 ) ) ;
#50 = CARTESIAN_POINT ( 'NONE',  ( 1.734723475976807100E-015, -14.00099999999999900, 14.99999999999999300 ) ) ;
#51 = DIRECTION ( 'NONE',  ( -1.000000000000000000, 0.0000000000000000000, 0.0000000000000000000 ) ) ;
#52 = DIRECTION ( 'NONE',  ( -0.0000000000000000000, 0.0000000000000000000, -1.000000000000000000 ) ) ;
#53 = DIRECTION ( 'NONE',  ( 0.0000000000000000000, -0.0000000000000000000, 1.000000000000000000 ) ) ;
#54 = CARTESIAN_POINT ( 'NONE',  ( -301.0000000000000000, 0.0000000000000000000, 210.0000000000000000 ) ) ;
#55 = PLANE ( 'NONE',  #326 ) ;
#56 = CARTESIAN_POINT ( 'NONE',  ( 301.8000000000000100, -14.00000000000000000, 210.0000000000000000 ) ) ;
#57 = DIRECTION ( 'NONE',  ( 0.0000000000000000000, 0.0000000000000000000, 1.000000000000000000 ) ) ;
#58 = DIRECTION ( 'NONE',  ( -1.000000000000000000, 0.0000000000000000000, 0.0000000000000000000 ) ) ;
#59 = DIRECTION ( 'NONE',  ( 0.0000000000000000000, 1.000000000000000000, 0.0000000000000000000 ) ) ;
#60 = PLANE ( 'NONE',  #328 ) ;
#61 = DIRECTION ( 'NONE',  ( 1.000000000000000000, 0.0000000000000000000, 0.0000000000000000000 ) ) ;
#62 = DIRECTION ( 'NONE',  ( -0.0000000000000000000, -0.0000000000000000000, -1.000000000000000000 ) ) ;
#63 = DIRECTION ( 'NONE',  ( 0.0000000000000000000, 0.0000000000000000000, 1.000000000000000000 ) ) ;
#64 = CARTESIAN_POINT ( 'NONE',  ( -301.8000000000000100, -14.00000000000000000, 210.0000000000000000 ) ) ;
#65 = DIRECTION ( 'NONE',  ( -1.000000000000000000, 0.0000000000000000000, 0.0000000000000000000 ) ) ;
#66 = CARTESIAN_POINT ( 'NONE',  ( -301.8000000000000100, -14.00000000000000000, 0.0000000000000000000 ) ) ;
#67 = CARTESIAN_POINT ( 'NONE',  ( 301.8000000000000100, -14.00000000000000000, 0.0000000000000000000 ) ) ;
#68 = CARTESIAN_POINT ( 'NONE',  ( 301.8000000000000100, -14.00000000000000000, 210.0000000000000000 ) ) ;
#69 = CARTESIAN_POINT ( 'NONE',  ( 301.8000000000000100, 0.8000000000000000400, 0.0000000000000000000 ) ) ;
#70 = CARTESIAN_POINT ( 'NONE',  ( 301.0000000000000000, -14.00000000000000000, 0.0000000000000000000 ) ) ;
#71 = DIRECTION ( 'NONE',  ( 0.0000000000000000000, -1.000000000000000000, 0.0000000000000000000 ) ) ;
#72 = CARTESIAN_POINT ( 'NONE',  ( -301.0000000000000000, 0.0000000000000000000, 0.0000000000000000000 ) ) ;
#73 = CARTESIAN_POINT ( 'NONE',  ( 301.0000000000000000, 0.0000000000000000000, 0.0000000000000000000 ) ) ;
#74 = DIRECTION ( 'NONE',  ( -0.0000000000000000000, -1.000000000000000000, 0.0000000000000000000 ) ) ;
#75 = DIRECTION ( 'NONE',  ( 0.0000000000000000000, 0.0000000000000000000, 1.000000000000000000 ) ) ;
#76 = CARTESIAN_POINT ( 'NONE',  ( 301.8000000000000100, 0.0000000000000000000, 0.0000000000000000000 ) ) ;
#77 = CARTESIAN_POINT ( 'NONE',  ( 301.8000000000000100, 0.8000000000000000400, 210.0000000000000000 ) ) ;
#78 = DIRECTION ( 'NONE',  ( 0.0000000000000000000, 0.0000000000000000000, -1.000000000000000000 ) ) ;
#79 = CARTESIAN_POINT ( 'NONE',  ( 1.734723475976807100E-015, -14.00099999999999900, 194.9999999999999700 ) ) ;
#80 = DIRECTION ( 'NONE',  ( 0.0000000000000000000, 1.000000000000000000, 0.0000000000000000000 ) ) ;
#81 = CARTESIAN_POINT ( 'NONE',  ( -301.8000000000000100, -14.00000000000000000, 210.0000000000000000 ) ) ;
#82 = DIRECTION ( 'NONE',  ( -0.0000000000000000000, 1.000000000000000000, -0.0000000000000000000 ) ) ;
#83 = DIRECTION ( 'NONE',  ( 0.0000000000000000000, 1.000000000000000000, 0.0000000000000000000 ) ) ;
#84 = DIRECTION ( 'NONE',  ( -0.0000000000000000000, 1.000000000000000000, -0.0000000000000000000 ) ) ;
#85 = CARTESIAN_POINT ( 'NONE',  ( 1.734723475976807100E-015, 0.8000000000000000400, 14.99999999999999300 ) ) ;
#86 = DIRECTION ( 'NONE',  ( 0.0000000000000000000, 1.000000000000000000, 0.0000000000000000000 ) ) ;
#87 = DIRECTION ( 'NONE',  ( -0.0000000000000000000, -0.0000000000000000000, -1.000000000000000000 ) ) ;
#88 = CARTESIAN_POINT ( 'NONE',  ( -301.0000000000000000, 0.0000000000000000000, 210.0000000000000000 ) ) ;
#89 = CARTESIAN_POINT ( 'NONE',  ( -301.0000000000000000, -14.00000000000000000, 0.0000000000000000000 ) ) ;
#90 = CARTESIAN_POINT ( 'NONE',  ( 301.0000000000000000, -14.00000000000000000, 210.0000000000000000 ) ) ;
#91 = CARTESIAN_POINT ( 'NONE',  ( -301.0000000000000000, -14.00000000000000000, 210.0000000000000000 ) ) ;
#92 = CARTESIAN_POINT ( 'NONE',  ( -301.0000000000000000, -14.00000000000000000, 0.0000000000000000000 ) ) ;
#93 = CARTESIAN_POINT ( 'NONE',  ( -301.0000000000000000, 0.0000000000000000000, 210.0000000000000000 ) ) ;
#94 = DIRECTION ( 'NONE',  ( -0.0000000000000000000, -1.000000000000000000, -0.0000000000000000000 ) ) ;
#95 = DIRECTION ( 'NONE',  ( -1.000000000000000000, 0.0000000000000000000, 0.0000000000000000000 ) ) ;
#96 = CARTESIAN_POINT ( 'NONE',  ( 301.8000000000000100, 0.0000000000000000000, 210.0000000000000000 ) ) ;
#97 = CARTESIAN_POINT ( 'NONE',  ( -301.8000000000000100, 0.8000000000000000400, 210.0000000000000000 ) ) ;
#98 = CARTESIAN_POINT ( 'NONE',  ( -301.0000000000000000, 0.8000000000000000400, 210.0000000000000000 ) ) ;
#99 = DIRECTION ( 'NONE',  ( 0.0000000000000000000, 0.0000000000000000000, 1.000000000000000000 ) ) ;
#100 = DIRECTION ( 'NONE',  ( -1.000000000000000000, 0.0000000000000000000, 0.0000000000000000000 ) ) ;
#101 = DIRECTION ( 'NONE',  ( -0.0000000000000000000, -1.000000000000000000, -0.0000000000000000000 ) ) ;
#102 = CARTESIAN_POINT ( 'NONE',  ( -301.0000000000000000, -14.00000000000000000, 210.0000000000000000 ) ) ;
#103 = PLANE ( 'NONE',  #324 ) ;
#104 = DIRECTION ( 'NONE',  ( 0.0000000000000000000, 0.0000000000000000000, 1.000000000000000000 ) ) ;
#105 = CARTESIAN_POINT ( 'NONE',  ( 1.734723475976807100E-015, 0.0000000000000000000, 14.99999999999999300 ) ) ;
#106 = CARTESIAN_POINT ( 'NONE',  ( -301.0000000000000000, 0.8000000000000000400, 0.0000000000000000000 ) ) ;
#107 = CARTESIAN_POINT ( 'NONE',  ( 301.8000000000000100, -14.00000000000000000, 210.0000000000000000 ) ) ;
#108 = CARTESIAN_POINT ( 'NONE',  ( 301.0000000000000000, 0.0000000000000000000, 210.0000000000000000 ) ) ;
#109 = DIRECTION ( 'NONE',  ( -0.0000000000000000000, 0.0000000000000000000, -1.000000000000000000 ) ) ;
#110 = DIRECTION ( 'NONE',  ( 1.000000000000000000, 0.0000000000000000000, -0.0000000000000000000 ) ) ;
#111 = CARTESIAN_POINT ( 'NONE',  ( 1.734723475976807100E-015, 0.8000000000000000400, 194.9999999999999700 ) ) ;
#112 = CARTESIAN_POINT ( 'NONE',  ( -301.0000000000000000, 0.0000000000000000000, 210.0000000000000000 ) ) ;
#113 = CARTESIAN_POINT ( 'NONE',  ( 301.0000000000000000, 0.0000000000000000000, 210.0000000000000000 ) ) ;
#114 = DIRECTION ( 'NONE',  ( -0.0000000000000000000, 1.000000000000000000, -0.0000000000000000000 ) ) ;
#115 = ORIENTED_EDGE ( 'NONE', *, *, #365, .T. ) ;
#116 = VECTOR ( 'NONE', #17, 1000.000000000000000 ) ;
#117 = CIRCLE ( 'NONE', #342, 2.500000000000002200 ) ;
#118 = LINE ( 'NONE', #106, #277 ) ;
#119 = LINE ( 'NONE', #77, #123 ) ;
#120 = VECTOR ( 'NONE', #48, 1000.000000000000000 ) ;
#121 = CIRCLE ( 'NONE', #352, 2.500000000000002200 ) ;
#122 = LINE ( 'NONE', #23, #116 ) ;
#123 = VECTOR ( 'NONE', #18, 1000.000000000000000 ) ;
#124 = EDGE_LOOP ( 'NONE', ( #152, #156, #155, #157 ) ) ;
#125 = EDGE_LOOP ( 'NONE', ( #165 ) ) ;
#126 = EDGE_LOOP ( 'NONE', ( #192 ) ) ;
#127 = EDGE_LOOP ( 'NONE', ( #154, #194, #115, #158 ) ) ;
#128 = EDGE_LOOP ( 'NONE', ( #139, #144, #145, #147 ) ) ;
#129 = EDGE_LOOP ( 'NONE', ( #190, #161, #141, #140 ) ) ;
#130 = EDGE_LOOP ( 'NONE', ( #146, #149, #148, #151 ) ) ;
#131 = EDGE_LOOP ( 'NONE', ( #159, #305, #160, #163 ) ) ;
#132 = EDGE_LOOP ( 'NONE', ( #205 ) ) ;
#133 = EDGE_LOOP ( 'NONE', ( #153 ) ) ;
#134 = ORIENTED_EDGE ( 'NONE', *, *, #360, .T. ) ;
#135 = ORIENTED_EDGE ( 'NONE', *, *, #372, .T. ) ;
#136 = CLOSED_SHELL ( 'NONE', ( #387, #393, #389, #398, #397, #392, #391, #390, #394, #395, #396, #388 ) ) ;
#137 = EDGE_LOOP ( 'NONE', ( #150 ) ) ;
#138 = EDGE_LOOP ( 'NONE', ( #166 ) ) ;
#139 = ORIENTED_EDGE ( 'NONE', *, *, #359, .F. ) ;
#140 = ORIENTED_EDGE ( 'NONE', *, *, #357, .T. ) ;
#141 = ORIENTED_EDGE ( 'NONE', *, *, #380, .F. ) ;
#142 = ORIENTED_EDGE ( 'NONE', *, *, #363, .T. ) ;
#143 = ORIENTED_EDGE ( 'NONE', *, *, #385, .T. ) ;
#144 = ORIENTED_EDGE ( 'NONE', *, *, #382, .F. ) ;
#145 = ORIENTED_EDGE ( 'NONE', *, *, #383, .T. ) ;
#146 = ORIENTED_EDGE ( 'NONE', *, *, #385, .F. ) ;
#147 = ORIENTED_EDGE ( 'NONE', *, *, #381, .T. ) ;
#148 = ORIENTED_EDGE ( 'NONE', *, *, #354, .T. ) ;
#149 = ORIENTED_EDGE ( 'NONE', *, *, #353, .F. ) ;
#150 = ORIENTED_EDGE ( 'NONE', *, *, #355, .F. ) ;
#151 = ORIENTED_EDGE ( 'NONE', *, *, #382, .T. ) ;
#152 = ORIENTED_EDGE ( 'NONE', *, *, #360, .F. ) ;
#153 = ORIENTED_EDGE ( 'NONE', *, *, #356, .F. ) ;
#154 = ORIENTED_EDGE ( 'NONE', *, *, #363, .F. ) ;
#155 = ORIENTED_EDGE ( 'NONE', *, *, #362, .T. ) ;
#156 = ORIENTED_EDGE ( 'NONE', *, *, #361, .F. ) ;
#157 = ORIENTED_EDGE ( 'NONE', *, *, #353, .T. ) ;
#158 = ORIENTED_EDGE ( 'NONE', *, *, #361, .T. ) ;
#159 = ORIENTED_EDGE ( 'NONE', *, *, #366, .F. ) ;
#160 = ORIENTED_EDGE ( 'NONE', *, *, #368, .T. ) ;
#161 = ORIENTED_EDGE ( 'NONE', *, *, #381, .F. ) ;
#162 = ORIENTED_EDGE ( 'NONE', *, *, #369, .T. ) ;
#163 = ORIENTED_EDGE ( 'NONE', *, *, #364, .T. ) ;
#164 = ORIENTED_EDGE ( 'NONE', *, *, #370, .F. ) ;
#165 = ORIENTED_EDGE ( 'NONE', *, *, #373, .F. ) ;
#166 = ORIENTED_EDGE ( 'NONE', *, *, #372, .F. ) ;
#167 = ORIENTED_EDGE ( 'NONE', *, *, #378, .T. ) ;
#168 = ORIENTED_EDGE ( 'NONE', *, *, #367, .T. ) ;
#169 = ORIENTED_EDGE ( 'NONE', *, *, #371, .F. ) ;
#170 = ORIENTED_EDGE ( 'NONE', *, *, #379, .F. ) ;
#171 = ORIENTED_EDGE ( 'NONE', *, *, #357, .F. ) ;
#172 = ORIENTED_EDGE ( 'NONE', *, *, #370, .T. ) ;
#173 = ORIENTED_EDGE ( 'NONE', *, *, #380, .T. ) ;
#174 = VECTOR ( 'NONE', #22, 1000.000000000000000 ) ;
#175 = LINE ( 'NONE', #19, #178 ) ;
#176 = VECTOR ( 'NONE', #21, 1000.000000000000000 ) ;
#177 = LINE ( 'NONE', #81, #307 ) ;
#178 = VECTOR ( 'NONE', #83, 1000.000000000000000 ) ;
#179 = LINE ( 'NONE', #102, #284 ) ;
#180 = ORIENTED_EDGE ( 'NONE', *, *, #365, .F. ) ;
#181 = ORIENTED_EDGE ( 'NONE', *, *, #368, .F. ) ;
#182 = ORIENTED_EDGE ( 'NONE', *, *, #379, .T. ) ;
#183 = ORIENTED_EDGE ( 'NONE', *, *, #378, .F. ) ;
#184 = ORIENTED_EDGE ( 'NONE', *, *, #384, .F. ) ;
#185 = ORIENTED_EDGE ( 'NONE', *, *, #366, .T. ) ;
#186 = ORIENTED_EDGE ( 'NONE', *, *, #369, .F. ) ;
#187 = ORIENTED_EDGE ( 'NONE', *, *, #354, .F. ) ;
#188 = ORIENTED_EDGE ( 'NONE', *, *, #371, .T. ) ;
#189 = ORIENTED_EDGE ( 'NONE', *, *, #362, .F. ) ;
#190 = ORIENTED_EDGE ( 'NONE', *, *, #384, .T. ) ;
#191 = ORIENTED_EDGE ( 'NONE', *, *, #355, .T. ) ;
#192 = ORIENTED_EDGE ( 'NONE', *, *, #356, .T. ) ;
#193 = ORIENTED_EDGE ( 'NONE', *, *, #383, .F. ) ;
#194 = ORIENTED_EDGE ( 'NONE', *, *, #364, .F. ) ;
#195 = LINE ( 'NONE', #68, #257 ) ;
#196 = LINE ( 'NONE', #76, #254 ) ;
#197 = FACE_BOUND ( 'NONE', #138, .T. ) ;
#198 = ORIENTED_EDGE ( 'NONE', *, *, #359, .T. ) ;
#199 = VECTOR ( 'NONE', #86, 1000.000000000000000 ) ;
#200 = LINE ( 'NONE', #15, #268 ) ;
#201 = LINE ( 'NONE', #107, #258 ) ;
#202 = CIRCLE ( 'NONE', #340, 2.500000000000002200 ) ;
#203 = LINE ( 'NONE', #9, #260 ) ;
#204 = LINE ( 'NONE', #98, #176 ) ;
#205 = ORIENTED_EDGE ( 'NONE', *, *, #373, .T. ) ;
#206 = VECTOR ( 'NONE', #62, 1000.000000000000000 ) ;
#207 = VERTEX_POINT ( 'NONE', #72 ) ;
#208 = VERTEX_POINT ( 'NONE', #90 ) ;
#209 = LINE ( 'NONE', #41, #199 ) ;
#210 = COORDINATED_UNIVERSAL_TIME_OFFSET ( 4, 0, .AHEAD. ) ;
#211 = PERSON_AND_ORGANIZATION ( #318, #229 ) ;
#212 = APPROVAL_DATE_TIME ( #213, #358 ) ;
#213 = DATE_AND_TIME ( #214, #215 ) ;
#214 = CALENDAR_DATE ( 2012, 9, 11 ) ;
#215 = LOCAL_TIME ( 12, 45, 11.00000000000000000, #210 ) ;
#216 = PERSON_AND_ORGANIZATION ( #318, #229 ) ;
#217 = DATE_AND_TIME ( #218, #219 ) ;
#218 = CALENDAR_DATE ( 2012, 9, 11 ) ;
#219 = LOCAL_TIME ( 12, 45, 11.00000000000000000, #220 ) ;
#220 = COORDINATED_UNIVERSAL_TIME_OFFSET ( 4, 0, .AHEAD. ) ;
#221 = LINE ( 'NONE', #113, #206 ) ;
#222 = LOCAL_TIME ( 12, 45, 11.00000000000000000, #224 ) ;
#223 = CALENDAR_DATE ( 2012, 9, 11 ) ;
#224 = COORDINATED_UNIVERSAL_TIME_OFFSET ( 4, 0, .AHEAD. ) ;
#225 = APPROVAL_PERSON_ORGANIZATION ( #216, #335, #422 ) ;
#226 = APPROVAL_PERSON_ORGANIZATION ( #227, #358, #427 ) ;
#227 = PERSON_AND_ORGANIZATION ( #318, #229 ) ;
#228 = LINE ( 'NONE', #45, #294 ) ;
#229 = ORGANIZATION ( 'UNSPECIFIED', 'UNSPECIFIED', '' ) ;
#230 = PERSON_AND_ORGANIZATION ( #318, #229 ) ;
#231 = VERTEX_POINT ( 'NONE', #411 ) ;
#232 = VERTEX_POINT ( 'NONE', #424 ) ;
#233 = VERTEX_POINT ( 'NONE', #409 ) ;
#234 = FACE_BOUND ( 'NONE', #133, .T. ) ;
#235 = SHAPE_DEFINITION_REPRESENTATION ( #399, #322 ) ;
#236 = CYLINDRICAL_SURFACE ( 'NONE', #377, 2.500000000000002200 ) ;
#237 = VERTEX_POINT ( 'NONE', #412 ) ;
#238 = FACE_OUTER_BOUND ( 'NONE', #132, .T. ) ;
#239 = FACE_OUTER_BOUND ( 'NONE', #124, .T. ) ;
#240 = FACE_BOUND ( 'NONE', #137, .T. ) ;
#241 = FACE_OUTER_BOUND ( 'NONE', #126, .T. ) ;
#242 = FACE_OUTER_BOUND ( 'NONE', #306, .T. ) ;
#243 = FACE_OUTER_BOUND ( 'NONE', #313, .T. ) ;
#244 = FACE_OUTER_BOUND ( 'NONE', #128, .T. ) ;
#245 = FACE_OUTER_BOUND ( 'NONE', #127, .T. ) ;
#246 = FACE_BOUND ( 'NONE', #125, .T. ) ;
#247 = FACE_OUTER_BOUND ( 'NONE', #310, .T. ) ;
#248 = CYLINDRICAL_SURFACE ( 'NONE', #329, 2.500000000000002200 ) ;
#249 = FACE_OUTER_BOUND ( 'NONE', #131, .T. ) ;
#250 = FACE_OUTER_BOUND ( 'NONE', #308, .T. ) ;
#251 = FACE_OUTER_BOUND ( 'NONE', #315, .T. ) ;
#252 = FACE_OUTER_BOUND ( 'NONE', #129, .T. ) ;
#253 = FACE_OUTER_BOUND ( 'NONE', #311, .T. ) ;
#254 = VECTOR ( 'NONE', #74, 1000.000000000000000 ) ;
#255 = VECTOR ( 'NONE', #71, 1000.000000000000000 ) ;
#256 = LINE ( 'NONE', #73, #255 ) ;
#257 = VECTOR ( 'NONE', #65, 1000.000000000000000 ) ;
#258 = VECTOR ( 'NONE', #11, 1000.000000000000000 ) ;
#259 = FACE_OUTER_BOUND ( 'NONE', #130, .T. ) ;
#260 = VECTOR ( 'NONE', #12, 1000.000000000000000 ) ;
#261 = LINE ( 'NONE', #5, #271 ) ;
#262 = PERSON_AND_ORGANIZATION ( #318, #229 ) ;
#263 = COORDINATED_UNIVERSAL_TIME_OFFSET ( 4, 0, .AHEAD. ) ;
#264 = LOCAL_TIME ( 12, 45, 11.00000000000000000, #263 ) ;
#265 = APPROVAL_PERSON_ORGANIZATION ( #262, #346, #415 ) ;
#266 = VECTOR ( 'NONE', #10, 1000.000000000000000 ) ;
#267 = LINE ( 'NONE', #43, #266 ) ;
#268 = VECTOR ( 'NONE', #46, 1000.000000000000000 ) ;
#269 = CIRCLE ( 'NONE', #341, 2.500000000000002200 ) ;
#270 = LINE ( 'NONE', #89, #280 ) ;
#271 = VECTOR ( 'NONE', #7, 1000.000000000000000 ) ;
#272 = VECTOR ( 'NONE', #49, 1000.000000000000000 ) ;
#273 = VECTOR ( 'NONE', #6, 1000.000000000000000 ) ;
#274 = VECTOR ( 'NONE', #13, 1000.000000000000000 ) ;
#275 = DATE_AND_TIME ( #276, #264 ) ;
#276 = CALENDAR_DATE ( 2012, 9, 11 ) ;
#277 = VECTOR ( 'NONE', #61, 1000.000000000000000 ) ;
#278 = LINE ( 'NONE', #88, #273 ) ;
#279 = LINE ( 'NONE', #93, #272 ) ;
#280 = VECTOR ( 'NONE', #16, 1000.000000000000000 ) ;
#281 = VERTEX_POINT ( 'NONE', #28 ) ;
#282 = VERTEX_POINT ( 'NONE', #66 ) ;
#283 = VERTEX_POINT ( 'NONE', #29 ) ;
#284 = VECTOR ( 'NONE', #58, 1000.000000000000000 ) ;
#285 = CALENDAR_DATE ( 2012, 9, 11 ) ;
#286 = PERSON_AND_ORGANIZATION ( #318, #229 ) ;
#287 = VERTEX_POINT ( 'NONE', #67 ) ;
#288 = APPROVAL_DATE_TIME ( #292, #335 ) ;
#289 = VERTEX_POINT ( 'NONE', #70 ) ;
#290 = VERTEX_POINT ( 'NONE', #64 ) ;
#291 = PERSON_AND_ORGANIZATION ( #318, #229 ) ;
#292 = DATE_AND_TIME ( #223, #222 ) ;
#293 = PERSON_AND_ORGANIZATION ( #318, #229 ) ;
#294 = VECTOR ( 'NONE', #82, 1000.000000000000000 ) ;
#295 = LOCAL_TIME ( 12, 45, 11.00000000000000000, #299 ) ;
#296 = VERTEX_POINT ( 'NONE', #69 ) ;
#297 = VERTEX_POINT ( 'NONE', #35 ) ;
#298 = VERTEX_POINT ( 'NONE', #91 ) ;
#299 = COORDINATED_UNIVERSAL_TIME_OFFSET ( 4, 0, .AHEAD. ) ;
#300 = LINE ( 'NONE', #14, #274 ) ;
#301 = APPROVAL_DATE_TIME ( #302, #346 ) ;
#302 = DATE_AND_TIME ( #285, #295 ) ;
#303 = VERTEX_POINT ( 'NONE', #92 ) ;
#304 = VERTEX_POINT ( 'NONE', #39 ) ;
#305 = ORIENTED_EDGE ( 'NONE', *, *, #367, .F. ) ;
#306 = EDGE_LOOP ( 'NONE', ( #184, #183, #186, #185, #142, #134, #143, #198 ) ) ;
#307 = VECTOR ( 'NONE', #87, 1000.000000000000000 ) ;
#308 = EDGE_LOOP ( 'NONE', ( #135 ) ) ;
#309 = VERTEX_POINT ( 'NONE', #112 ) ;
#310 = EDGE_LOOP ( 'NONE', ( #162, #164, #169, #168 ) ) ;
#311 = EDGE_LOOP ( 'NONE', ( #191 ) ) ;
#312 = LINE ( 'NONE', #97, #174 ) ;
#313 = EDGE_LOOP ( 'NONE', ( #173, #193, #187, #189, #180, #181, #188, #182 ) ) ;
#314 = LINE ( 'NONE', #40, #120 ) ;
#315 = EDGE_LOOP ( 'NONE', ( #167, #171, #170, #172 ) ) ;
#316 = VERTEX_POINT ( 'NONE', #20 ) ;
#317 = VERTEX_POINT ( 'NONE', #27 ) ;
#318 = PERSON ( 'UNSPECIFIED', 'UNSPECIFIED', 'UNSPECIFIED', ('UNSPECIFIED'), ('UNSPECIFIED'), ('UNSPECIFIED') ) ;
#319 = PRODUCT ( 'Êðûøêà íà óãîë âåðòèêàëüíûé âíåøíèé CDV 90_38347', 'Êðûøêà íà óãîë âåðòèêàëüíûé âíåøíèé CDV 90_38347', '', ( #435 ) ) ;
#320 = MANIFOLD_SOLID_BREP ( 'Âûðåç-Âûòÿíóòü1', #136 ) ;
#321 = UNCERTAINTY_MEASURE_WITH_UNIT (LENGTH_MEASURE( 1.000000000000000100E-005 ), #403, 'distance_accuracy_value', 'NONE');
#322 = ADVANCED_BREP_SHAPE_REPRESENTATION ( '¦¨v°úð ýð ºóþû òõ¨ªøúðû¹ývù òýõ°ýøù CDV 90_38347', ( #320, #327 ), #375 ) ;
#323 = AXIS2_PLACEMENT_3D ( 'NONE', #2, #24, #38 ) ;
#324 = AXIS2_PLACEMENT_3D ( 'NONE', #54, #100, #99 ) ;
#325 = PRODUCT_DEFINITION ( 'UNKNOWN', '', #333, #400 ) ;
#326 = AXIS2_PLACEMENT_3D ( 'NONE', #3, #59, #53 ) ;
#327 = AXIS2_PLACEMENT_3D ( 'NONE', #429, #433, #436 ) ;
#328 = AXIS2_PLACEMENT_3D ( 'NONE', #96, #1, #4 ) ;
#329 = AXIS2_PLACEMENT_3D ( 'NONE', #79, #114, #75 ) ;
#330 = CC_DESIGN_APPROVAL ( #358, ( #325 ) ) ;
#331 = AXIS2_PLACEMENT_3D ( 'NONE', #108, #110, #37 ) ;
#332 = CC_DESIGN_APPROVAL ( #335, ( #333 ) ) ;
#333 = PRODUCT_DEFINITION_FORMATION_WITH_SPECIFIED_SOURCE ( 'ANY', '', #319, .NOT_KNOWN. ) ;
#334 = CC_DESIGN_PERSON_AND_ORGANIZATION_ASSIGNMENT ( #230, #432, ( #319 ) ) ;
#335 = APPROVAL ( #423, 'UNSPECIFIED' ) ;
#336 = CC_DESIGN_DATE_AND_TIME_ASSIGNMENT ( #217, #425, ( #325 ) ) ;
#337 = CC_DESIGN_PERSON_AND_ORGANIZATION_ASSIGNMENT ( #211, #426, ( #325 ) ) ;
#338 = AXIS2_PLACEMENT_3D ( 'NONE', #25, #109, #95 ) ;
#339 = AXIS2_PLACEMENT_3D ( 'NONE', #56, #31, #30 ) ;
#340 = AXIS2_PLACEMENT_3D ( 'NONE', #105, #101, #104 ) ;
#341 = AXIS2_PLACEMENT_3D ( 'NONE', #42, #94, #57 ) ;
#342 = AXIS2_PLACEMENT_3D ( 'NONE', #85, #80, #63 ) ;
#343 = PRODUCT_RELATED_PRODUCT_CATEGORY ( 'detail', '', ( #319 ) ) ;
#344 = CC_DESIGN_SECURITY_CLASSIFICATION ( #349, ( #333 ) ) ;
#345 = CC_DESIGN_APPROVAL ( #346, ( #349 ) ) ;
#346 = APPROVAL ( #416, 'UNSPECIFIED' ) ;
#347 = CC_DESIGN_DATE_AND_TIME_ASSIGNMENT ( #275, #417, ( #349 ) ) ;
#348 = CC_DESIGN_PERSON_AND_ORGANIZATION_ASSIGNMENT ( #291, #418, ( #349 ) ) ;
#349 = SECURITY_CLASSIFICATION ( '', '', #419 ) ;
#350 = CC_DESIGN_PERSON_AND_ORGANIZATION_ASSIGNMENT ( #293, #420, ( #333 ) ) ;
#351 = CC_DESIGN_PERSON_AND_ORGANIZATION_ASSIGNMENT ( #286, #421, ( #333 ) ) ;
#352 = AXIS2_PLACEMENT_3D ( 'NONE', #111, #84, #78 ) ;
#353 = EDGE_CURVE ( 'NONE', #316, #296, #119, .T. ) ;
#354 = EDGE_CURVE ( 'NONE', #316, #297, #122, .T. ) ;
#355 = EDGE_CURVE ( 'NONE', #237, #237, #121, .T. ) ;
#356 = EDGE_CURVE ( 'NONE', #231, #231, #117, .T. ) ;
#357 = EDGE_CURVE ( 'NONE', #317, #283, #221, .T. ) ;
#358 = APPROVAL ( #428, 'UNSPECIFIED' ) ;
#359 = EDGE_CURVE ( 'NONE', #287, #289, #314, .T. ) ;
#360 = EDGE_CURVE ( 'NONE', #281, #296, #118, .T. ) ;
#361 = EDGE_CURVE ( 'NONE', #304, #281, #312, .T. ) ;
#362 = EDGE_CURVE ( 'NONE', #304, #316, #204, .T. ) ;
#363 = EDGE_CURVE ( 'NONE', #282, #281, #175, .T. ) ;
#364 = EDGE_CURVE ( 'NONE', #290, #282, #177, .T. ) ;
#365 = EDGE_CURVE ( 'NONE', #290, #304, #209, .T. ) ;
#366 = EDGE_CURVE ( 'NONE', #303, #282, #270, .T. ) ;
#367 = EDGE_CURVE ( 'NONE', #298, #303, #300, .T. ) ;
#368 = EDGE_CURVE ( 'NONE', #298, #290, #179, .T. ) ;
#369 = EDGE_CURVE ( 'NONE', #303, #207, #228, .T. ) ;
#370 = EDGE_CURVE ( 'NONE', #309, #207, #200, .T. ) ;
#371 = EDGE_CURVE ( 'NONE', #298, #309, #278, .T. ) ;
#372 = EDGE_CURVE ( 'NONE', #232, #232, #269, .T. ) ;
#373 = EDGE_CURVE ( 'NONE', #233, #233, #202, .T. ) ;
#374 = AXIS2_PLACEMENT_3D ( 'NONE', #408, #404, #410 ) ;
#375 =( GEOMETRIC_REPRESENTATION_CONTEXT ( 3 ) GLOBAL_UNCERTAINTY_ASSIGNED_CONTEXT ( ( #321 ) ) GLOBAL_UNIT_ASSIGNED_CONTEXT ( ( #403, #402, #414 ) ) REPRESENTATION_CONTEXT ( 'NONE', 'WORKASPACE' ) );
#376 = AXIS2_PLACEMENT_3D ( 'NONE', #413, #405, #407 ) ;
#377 = AXIS2_PLACEMENT_3D ( 'NONE', #50, #44, #33 ) ;
#378 = EDGE_CURVE ( 'NONE', #207, #283, #261, .T. ) ;
#379 = EDGE_CURVE ( 'NONE', #309, #317, #279, .T. ) ;
#380 = EDGE_CURVE ( 'NONE', #317, #208, #267, .T. ) ;
#381 = EDGE_CURVE ( 'NONE', #208, #289, #203, .T. ) ;
#382 = EDGE_CURVE ( 'NONE', #297, #287, #201, .T. ) ;
#383 = EDGE_CURVE ( 'NONE', #297, #208, #195, .T. ) ;
#384 = EDGE_CURVE ( 'NONE', #283, #289, #256, .T. ) ;
#385 = EDGE_CURVE ( 'NONE', #296, #287, #196, .T. ) ;
#386 = AXIS2_PLACEMENT_3D ( 'NONE', #32, #52, #51 ) ;
#387 = ADVANCED_FACE ( 'NONE', ( #252 ), #8, .F. ) ;
#388 = ADVANCED_FACE ( 'NONE', ( #253, #250 ), #248, .F. ) ;
#389 = ADVANCED_FACE ( 'NONE', ( #259 ), #60, .T. ) ;
#390 = ADVANCED_FACE ( 'NONE', ( #197, #246, #251 ), #55, .F. ) ;
#391 = ADVANCED_FACE ( 'NONE', ( #247 ), #103, .F. ) ;
#392 = ADVANCED_FACE ( 'NONE', ( #249 ), #26, .T. ) ;
#393 = ADVANCED_FACE ( 'NONE', ( #244 ), #36, .T. ) ;
#394 = ADVANCED_FACE ( 'NONE', ( #243 ), #34, .F. ) ;
#395 = ADVANCED_FACE ( 'NONE', ( #242 ), #47, .T. ) ;
#396 = ADVANCED_FACE ( 'NONE', ( #241, #238 ), #236, .F. ) ;
#397 = ADVANCED_FACE ( 'NONE', ( #245 ), #434, .T. ) ;
#398 = ADVANCED_FACE ( 'NONE', ( #240, #234, #239 ), #406, .T. ) ;
#399 = PRODUCT_DEFINITION_SHAPE ( 'NONE', 'NONE',  #325 ) ;
#400 = DESIGN_CONTEXT ( 'detailed design', #431, 'design' ) ;
#401 = APPLICATION_PROTOCOL_DEFINITION ( 'international standard', 'config_control_design', 1994, #437 ) ;
#402 =( NAMED_UNIT ( * ) PLANE_ANGLE_UNIT ( ) SI_UNIT ( $, .RADIAN. ) );
#403 =( LENGTH_UNIT ( ) NAMED_UNIT ( * ) SI_UNIT ( .MILLI., .METRE. ) );
#404 = DIRECTION ( 'NONE',  ( 0.0000000000000000000, 1.000000000000000000, 0.0000000000000000000 ) ) ;
#405 = DIRECTION ( 'NONE',  ( -1.000000000000000000, 0.0000000000000000000, 0.0000000000000000000 ) ) ;
#406 = PLANE ( 'NONE',  #374 ) ;
#407 = DIRECTION ( 'NONE',  ( 0.0000000000000000000, 0.0000000000000000000, 1.000000000000000000 ) ) ;
#408 = CARTESIAN_POINT ( 'NONE',  ( -301.0000000000000000, 0.8000000000000000400, 210.0000000000000000 ) ) ;
#409 = CARTESIAN_POINT ( 'NONE',  ( 1.734723475976807100E-015, 0.0000000000000000000, 17.49999999999999600 ) ) ;
#410 = DIRECTION ( 'NONE',  ( 0.0000000000000000000, -0.0000000000000000000, 1.000000000000000000 ) ) ;
#411 = CARTESIAN_POINT ( 'NONE',  ( 1.734723475976807100E-015, 0.8000000000000000400, 17.49999999999999600 ) ) ;
#412 = CARTESIAN_POINT ( 'NONE',  ( 1.734723475976807100E-015, 0.8000000000000000400, 192.4999999999999700 ) ) ;
#413 = CARTESIAN_POINT ( 'NONE',  ( -301.8000000000000100, 0.0000000000000000000, 210.0000000000000000 ) ) ;
#414 =( NAMED_UNIT ( * ) SI_UNIT ( $, .STERADIAN. ) SOLID_ANGLE_UNIT ( ) );
#415 = APPROVAL_ROLE ( '' ) ;
#416 = APPROVAL_STATUS ( 'not_yet_approved' ) ;
#417 = DATE_TIME_ROLE ( 'classification_date' ) ;
#418 = PERSON_AND_ORGANIZATION_ROLE ( 'classification_officer' ) ;
#419 = SECURITY_CLASSIFICATION_LEVEL ( 'unclassified' ) ;
#420 = PERSON_AND_ORGANIZATION_ROLE ( 'design_supplier' ) ;
#421 = PERSON_AND_ORGANIZATION_ROLE ( 'creator' ) ;
#422 = APPROVAL_ROLE ( '' ) ;
#423 = APPROVAL_STATUS ( 'not_yet_approved' ) ;
#424 = CARTESIAN_POINT ( 'NONE',  ( 1.734723475976807100E-015, 0.0000000000000000000, 197.4999999999999700 ) ) ;
#425 = DATE_TIME_ROLE ( 'creation_date' ) ;
#426 = PERSON_AND_ORGANIZATION_ROLE ( 'creator' ) ;
#427 = APPROVAL_ROLE ( '' ) ;
#428 = APPROVAL_STATUS ( 'not_yet_approved' ) ;
#429 = CARTESIAN_POINT ( 'NONE',  ( 0.0000000000000000000, 0.0000000000000000000, 0.0000000000000000000 ) ) ;
#430 = APPLICATION_PROTOCOL_DEFINITION ( 'international standard', 'config_control_design', 1994, #431 ) ;
#431 = APPLICATION_CONTEXT ( 'configuration controlled 3d designs of mechanical parts and assemblies' ) ;
#432 = PERSON_AND_ORGANIZATION_ROLE ( 'design_owner' ) ;
#433 = DIRECTION ( 'NONE',  ( 0.0000000000000000000, 0.0000000000000000000, 1.000000000000000000 ) ) ;
#434 = PLANE ( 'NONE',  #376 ) ;
#435 = MECHANICAL_CONTEXT ( 'NONE', #437, 'mechanical' ) ;
#436 = DIRECTION ( 'NONE',  ( 1.000000000000000000, 0.0000000000000000000, 0.0000000000000000000 ) ) ;
#437 = APPLICATION_CONTEXT ( 'configuration controlled 3d designs of mechanical parts and assemblies' ) ;
ENDSEC;
END-ISO-10303-21;
