ISO-10303-21;
HEADER;
FILE_DESCRIPTION(('Creo Elements/Direct Modeling STEP Export'),'2;1');
FILE_NAME('SFR.6-PT.stp','2014-01-24T 9:22:55',(''),(''),
'Creo Elements/Direct Modeling STEP processor for AP214 (Solid Model)',
'Creo Elements/Direct Modeling 18.0B  02-Dec-2011 (C) Parametric Technol
ogy GmbH','');
FILE_SCHEMA(('AUTOMOTIVE_DESIGN { 1 0 10303 214 1 1 1 1 }'));
ENDSEC;
DATA;
#10=CARTESIAN_POINT('',(38.339672,25.398516,0.));
#20=DIRECTION('',(0.,0.,1.));
#30=DIRECTION('',(1.,0.,0.));
#40=AXIS2_PLACEMENT_3D('',#10,#20,#30);
#50=PLANE('',#40);
#60=CARTESIAN_POINT('',(38.339672,41.0000000000211,0.));
#70=DIRECTION('',(1.,-2.22044604925031E-16,0.));
#80=VECTOR('',#70,1.);
#90=LINE('',#60,#80);
#100=CARTESIAN_POINT('',(-38.7,41.0000000000211,0.));
#110=VERTEX_POINT('',#100);
#120=CARTESIAN_POINT('',(-16.3000000000032,41.0000000000202,0.));
#130=VERTEX_POINT('',#120);
#140=EDGE_CURVE('',#110,#130,#90,.T.);
#150=ORIENTED_EDGE('',*,*,#140,.T.);
#160=CARTESIAN_POINT('',(-38.7,40.5000000000211,0.));
#170=DIRECTION('',(0.,0.,1.));
#180=DIRECTION('',(1.,0.,0.));
#190=AXIS2_PLACEMENT_3D('',#160,#170,#180);
#200=CIRCLE('',#190,0.5);
#210=CARTESIAN_POINT('',(-39.2,40.5000000000211,0.));
#220=VERTEX_POINT('',#210);
#230=EDGE_CURVE('',#110,#220,#200,.T.);
#240=ORIENTED_EDGE('',*,*,#230,.F.);
#250=CARTESIAN_POINT('',(-39.2,25.398516,0.));
#260=DIRECTION('',(0.,1.,0.));
#270=VECTOR('',#260,1.);
#280=LINE('',#250,#270);
#290=CARTESIAN_POINT('',(-39.2,5.00000039527819,0.));
#300=VERTEX_POINT('',#290);
#310=EDGE_CURVE('',#300,#220,#280,.T.);
#320=ORIENTED_EDGE('',*,*,#310,.T.);
#330=CARTESIAN_POINT('',(-38.7,5.00000039527819,0.));
#340=DIRECTION('',(0.,0.,1.));
#350=DIRECTION('',(1.,0.,0.));
#360=AXIS2_PLACEMENT_3D('',#330,#340,#350);
#370=CIRCLE('',#360,0.5);
#380=CARTESIAN_POINT('',(-38.7,4.50000039527819,0.));
#390=VERTEX_POINT('',#380);
#400=EDGE_CURVE('',#300,#390,#370,.T.);
#410=ORIENTED_EDGE('',*,*,#400,.F.);
#420=CARTESIAN_POINT('',(38.339672,4.50000039527819,0.));
#430=DIRECTION('',(-1.,0.,0.));
#440=VECTOR('',#430,1.);
#450=LINE('',#420,#440);
#460=CARTESIAN_POINT('',(-16.0000000000007,4.50000039527819,0.));
#470=VERTEX_POINT('',#460);
#480=EDGE_CURVE('',#470,#390,#450,.T.);
#490=ORIENTED_EDGE('',*,*,#480,.T.);
#500=CARTESIAN_POINT('',(-16.0000000000007,3.50000039527819,0.));
#510=DIRECTION('',(0.,0.,1.));
#520=DIRECTION('',(1.,0.,0.));
#530=AXIS2_PLACEMENT_3D('',#500,#510,#520);
#540=CIRCLE('',#530,1.);
#550=CARTESIAN_POINT('',(-15.0000000000007,3.50000039527819,0.));
#560=VERTEX_POINT('',#550);
#570=EDGE_CURVE('',#560,#470,#540,.T.);
#580=ORIENTED_EDGE('',*,*,#570,.T.);
#590=CARTESIAN_POINT('',(-15.0000000000007,25.398516,0.));
#600=DIRECTION('',(0.,1.,0.));
#610=VECTOR('',#600,1.);
#620=LINE('',#590,#610);
#630=CARTESIAN_POINT('',(-15.0000000000007,1.50000039527818,0.));
#640=VERTEX_POINT('',#630);
#650=EDGE_CURVE('',#640,#560,#620,.T.);
#660=ORIENTED_EDGE('',*,*,#650,.T.);
#670=CARTESIAN_POINT('',(-13.5000000000007,1.50000039527818,0.));
#680=DIRECTION('',(0.,0.,1.));
#690=DIRECTION('',(1.,0.,0.));
#700=AXIS2_PLACEMENT_3D('',#670,#680,#690);
#710=CIRCLE('',#700,1.5);
#720=CARTESIAN_POINT('',(-13.5000000000007,4.2632564145606E-14,0.));
#730=VERTEX_POINT('',#720);
#740=EDGE_CURVE('',#640,#730,#710,.T.);
#750=ORIENTED_EDGE('',*,*,#740,.F.);
#760=CARTESIAN_POINT('',(38.339672,4.2632564145606E-14,0.));
#770=DIRECTION('',(-1.,0.,0.));
#780=VECTOR('',#770,1.);
#790=LINE('',#760,#780);
#800=CARTESIAN_POINT('',(37.7,4.2632564145606E-14,0.));
#810=VERTEX_POINT('',#800);
#820=EDGE_CURVE('',#810,#730,#790,.T.);
#830=ORIENTED_EDGE('',*,*,#820,.T.);
#840=CARTESIAN_POINT('',(37.7,1.50000000000004,0.));
#850=DIRECTION('',(0.,0.,1.));
#860=DIRECTION('',(1.,0.,0.));
#870=AXIS2_PLACEMENT_3D('',#840,#850,#860);
#880=CIRCLE('',#870,1.5);
#890=CARTESIAN_POINT('',(39.2,1.50000000000004,0.));
#900=VERTEX_POINT('',#890);
#910=EDGE_CURVE('',#810,#900,#880,.T.);
#920=ORIENTED_EDGE('',*,*,#910,.F.);
#930=CARTESIAN_POINT('',(39.2,25.398516,0.));
#940=DIRECTION('',(0.,-1.,0.));
#950=VECTOR('',#940,1.);
#960=LINE('',#930,#950);
#970=CARTESIAN_POINT('',(39.2,26.909958941331,0.));
#980=VERTEX_POINT('',#970);
#990=EDGE_CURVE('',#980,#900,#960,.T.);
#1000=ORIENTED_EDGE('',*,*,#990,.T.);
#1010=CARTESIAN_POINT('',(37.2,26.909958941331,0.));
#1020=DIRECTION('',(0.,0.,1.));
#1030=DIRECTION('',(1.,0.,0.));
#1040=AXIS2_PLACEMENT_3D('',#1010,#1020,#1030);
#1050=CIRCLE('',#1040,2.);
#1060=CARTESIAN_POINT('',(39.0793852415718,27.5939992279824,0.));
#1070=VERTEX_POINT('',#1060);
#1080=EDGE_CURVE('',#980,#1070,#1050,.T.);
#1090=ORIENTED_EDGE('',*,*,#1080,.F.);
#1100=CARTESIAN_POINT('',(39.8784757863881,25.398516,0.));
#1110=DIRECTION('',(0.342020143325669,-0.939692620785908,0.));
#1120=VECTOR('',#1110,1.);
#1130=LINE('',#1100,#1120);
#1140=CARTESIAN_POINT('',(34.4394850825762,40.3420201433468,0.));
#1150=VERTEX_POINT('',#1140);
#1160=EDGE_CURVE('',#1150,#1070,#1130,.T.);
#1170=ORIENTED_EDGE('',*,*,#1160,.T.);
#1180=CARTESIAN_POINT('',(33.4997924617903,40.0000000000211,0.));
#1190=DIRECTION('',(0.,0.,-1.));
#1200=DIRECTION('',(0.,-1.,0.));
#1210=AXIS2_PLACEMENT_3D('',#1180,#1190,#1200);
#1220=CIRCLE('',#1210,1.);
#1230=CARTESIAN_POINT('',(33.4997924617903,41.0000000000211,0.));
#1240=VERTEX_POINT('',#1230);
#1250=EDGE_CURVE('',#1240,#1150,#1220,.T.);
#1260=ORIENTED_EDGE('',*,*,#1250,.T.);
#1270=CARTESIAN_POINT('',(38.339672,41.0000000000211,0.));
#1280=DIRECTION('',(1.,4.07851081701304E-18,0.));
#1290=VECTOR('',#1280,1.);
#1300=LINE('',#1270,#1290);
#1310=CARTESIAN_POINT('',(24.7999999999983,41.0000000000211,0.));
#1320=VERTEX_POINT('',#1310);
#1330=EDGE_CURVE('',#1320,#1240,#1300,.T.);
#1340=ORIENTED_EDGE('',*,*,#1330,.T.);
#1350=CARTESIAN_POINT('',(30.4784757863864,25.398516,0.));
#1360=DIRECTION('',(0.342020143325669,-0.939692620785908,0.));
#1370=VECTOR('',#1360,1.);
#1380=LINE('',#1350,#1370);
#1390=CARTESIAN_POINT('',(22.6161785944089,46.9999999999997,0.));
#1400=VERTEX_POINT('',#1390);
#1410=EDGE_CURVE('',#1400,#1320,#1380,.T.);
#1420=ORIENTED_EDGE('',*,*,#1410,.T.);
#1430=CARTESIAN_POINT('',(38.339672,47.0000000000005,0.));
#1440=DIRECTION('',(1.,5.16334869616667E-14,0.));
#1450=VECTOR('',#1440,1.);
#1460=LINE('',#1430,#1450);
#1470=CARTESIAN_POINT('',(-12.8358983848782,46.9999999999979,0.));
#1480=VERTEX_POINT('',#1470);
#1490=EDGE_CURVE('',#1480,#1400,#1460,.T.);
#1500=ORIENTED_EDGE('',*,*,#1490,.T.);
#1510=CARTESIAN_POINT('',(-25.3075209871728,25.398516,0.));
#1520=DIRECTION('',(0.500000000000012,0.866025403784432,0.));
#1530=VECTOR('',#1520,1.);
#1540=LINE('',#1510,#1530);
#1550=EDGE_CURVE('',#130,#1480,#1540,.T.);
#1560=ORIENTED_EDGE('',*,*,#1550,.T.);
#1570=EDGE_LOOP('',(#1560,#1500,#1420,#1340,#1260,#1170,#1090,#1000,#920
,#830,#750,#660,#580,#490,#410,#320,#240,#150));
#1580=FACE_OUTER_BOUND('',#1570,.T.);
#1590=ADVANCED_FACE('',(#1580),#50,.F.);
#1600=CARTESIAN_POINT('',(38.339672,25.398516,1.5));
#1610=DIRECTION('',(0.,0.,1.));
#1620=DIRECTION('',(1.,0.,0.));
#1630=AXIS2_PLACEMENT_3D('',#1600,#1610,#1620);
#1640=PLANE('',#1630);
#1650=CARTESIAN_POINT('',(-25.3075209871728,25.398516,1.5));
#1660=DIRECTION('',(0.500000000000012,0.866025403784432,0.));
#1670=VECTOR('',#1660,1.);
#1680=LINE('',#1650,#1670);
#1690=CARTESIAN_POINT('',(-16.3000000000032,41.0000000000202,1.5));
#1700=VERTEX_POINT('',#1690);
#1710=CARTESIAN_POINT('',(-12.8358983848782,46.9999999999979,1.5));
#1720=VERTEX_POINT('',#1710);
#1730=EDGE_CURVE('',#1700,#1720,#1680,.T.);
#1740=ORIENTED_EDGE('',*,*,#1730,.F.);
#1750=CARTESIAN_POINT('',(38.339672,47.0000000000005,1.5));
#1760=DIRECTION('',(-1.,-5.16334869616667E-14,0.));
#1770=VECTOR('',#1760,1.);
#1780=LINE('',#1750,#1770);
#1790=CARTESIAN_POINT('',(22.6161785944089,46.9999999999997,1.5));
#1800=VERTEX_POINT('',#1790);
#1810=EDGE_CURVE('',#1800,#1720,#1780,.T.);
#1820=ORIENTED_EDGE('',*,*,#1810,.T.);
#1830=CARTESIAN_POINT('',(30.4784757863864,25.398516,1.5));
#1840=DIRECTION('',(0.342020143325669,-0.939692620785908,0.));
#1850=VECTOR('',#1840,1.);
#1860=LINE('',#1830,#1850);
#1870=CARTESIAN_POINT('',(24.7999999999983,41.0000000000211,1.5));
#1880=VERTEX_POINT('',#1870);
#1890=EDGE_CURVE('',#1800,#1880,#1860,.T.);
#1900=ORIENTED_EDGE('',*,*,#1890,.F.);
#1910=CARTESIAN_POINT('',(38.339672,41.0000000000211,1.5));
#1920=DIRECTION('',(1.,4.07851081701304E-18,0.));
#1930=VECTOR('',#1920,1.);
#1940=LINE('',#1910,#1930);
#1950=CARTESIAN_POINT('',(33.4997924617903,41.0000000000211,1.5));
#1960=VERTEX_POINT('',#1950);
#1970=EDGE_CURVE('',#1880,#1960,#1940,.T.);
#1980=ORIENTED_EDGE('',*,*,#1970,.F.);
#1990=CARTESIAN_POINT('',(33.4997924617903,40.0000000000211,1.5));
#2000=DIRECTION('',(0.,0.,-1.));
#2010=DIRECTION('',(0.,-1.,0.));
#2020=AXIS2_PLACEMENT_3D('',#1990,#2000,#2010);
#2030=CIRCLE('',#2020,1.);
#2040=CARTESIAN_POINT('',(34.4394850825762,40.3420201433468,1.5));
#2050=VERTEX_POINT('',#2040);
#2060=EDGE_CURVE('',#1960,#2050,#2030,.T.);
#2070=ORIENTED_EDGE('',*,*,#2060,.F.);
#2080=CARTESIAN_POINT('',(39.8784757863881,25.398516,1.5));
#2090=DIRECTION('',(0.342020143325669,-0.939692620785908,0.));
#2100=VECTOR('',#2090,1.);
#2110=LINE('',#2080,#2100);
#2120=CARTESIAN_POINT('',(39.0793852415718,27.5939992279824,1.5));
#2130=VERTEX_POINT('',#2120);
#2140=EDGE_CURVE('',#2050,#2130,#2110,.T.);
#2150=ORIENTED_EDGE('',*,*,#2140,.F.);
#2160=CARTESIAN_POINT('',(37.2,26.909958941331,1.5));
#2170=DIRECTION('',(0.,0.,1.));
#2180=DIRECTION('',(1.,0.,0.));
#2190=AXIS2_PLACEMENT_3D('',#2160,#2170,#2180);
#2200=CIRCLE('',#2190,2.);
#2210=CARTESIAN_POINT('',(39.2,26.909958941331,1.5));
#2220=VERTEX_POINT('',#2210);
#2230=EDGE_CURVE('',#2220,#2130,#2200,.T.);
#2240=ORIENTED_EDGE('',*,*,#2230,.T.);
#2250=CARTESIAN_POINT('',(39.2,25.398516,1.5));
#2260=DIRECTION('',(0.,-1.,0.));
#2270=VECTOR('',#2260,1.);
#2280=LINE('',#2250,#2270);
#2290=CARTESIAN_POINT('',(39.2,1.50000000000004,1.5));
#2300=VERTEX_POINT('',#2290);
#2310=EDGE_CURVE('',#2220,#2300,#2280,.T.);
#2320=ORIENTED_EDGE('',*,*,#2310,.F.);
#2330=CARTESIAN_POINT('',(37.7,1.50000000000004,1.5));
#2340=DIRECTION('',(0.,0.,1.));
#2350=DIRECTION('',(1.,0.,0.));
#2360=AXIS2_PLACEMENT_3D('',#2330,#2340,#2350);
#2370=CIRCLE('',#2360,1.5);
#2380=CARTESIAN_POINT('',(37.7,4.2632564145606E-14,1.5));
#2390=VERTEX_POINT('',#2380);
#2400=EDGE_CURVE('',#2390,#2300,#2370,.T.);
#2410=ORIENTED_EDGE('',*,*,#2400,.T.);
#2420=CARTESIAN_POINT('',(38.339672,4.2632564145606E-14,1.5));
#2430=DIRECTION('',(-1.,0.,0.));
#2440=VECTOR('',#2430,1.);
#2450=LINE('',#2420,#2440);
#2460=CARTESIAN_POINT('',(-13.5000000000007,4.2632564145606E-14,1.5));
#2470=VERTEX_POINT('',#2460);
#2480=EDGE_CURVE('',#2390,#2470,#2450,.T.);
#2490=ORIENTED_EDGE('',*,*,#2480,.F.);
#2500=CARTESIAN_POINT('',(-13.5000000000007,1.50000039527818,1.5));
#2510=DIRECTION('',(0.,0.,1.));
#2520=DIRECTION('',(1.,0.,0.));
#2530=AXIS2_PLACEMENT_3D('',#2500,#2510,#2520);
#2540=CIRCLE('',#2530,1.5);
#2550=CARTESIAN_POINT('',(-15.0000000000007,1.50000039527818,1.5));
#2560=VERTEX_POINT('',#2550);
#2570=EDGE_CURVE('',#2560,#2470,#2540,.T.);
#2580=ORIENTED_EDGE('',*,*,#2570,.T.);
#2590=CARTESIAN_POINT('',(-15.0000000000007,25.398516,1.5));
#2600=DIRECTION('',(0.,1.,0.));
#2610=VECTOR('',#2600,1.);
#2620=LINE('',#2590,#2610);
#2630=CARTESIAN_POINT('',(-15.0000000000007,3.50000039527819,1.5));
#2640=VERTEX_POINT('',#2630);
#2650=EDGE_CURVE('',#2560,#2640,#2620,.T.);
#2660=ORIENTED_EDGE('',*,*,#2650,.F.);
#2670=CARTESIAN_POINT('',(-16.0000000000007,3.50000039527819,1.5));
#2680=DIRECTION('',(0.,0.,1.));
#2690=DIRECTION('',(1.,0.,0.));
#2700=AXIS2_PLACEMENT_3D('',#2670,#2680,#2690);
#2710=CIRCLE('',#2700,1.);
#2720=CARTESIAN_POINT('',(-16.0000000000007,4.50000039527819,1.5));
#2730=VERTEX_POINT('',#2720);
#2740=EDGE_CURVE('',#2640,#2730,#2710,.T.);
#2750=ORIENTED_EDGE('',*,*,#2740,.F.);
#2760=CARTESIAN_POINT('',(38.339672,4.50000039527819,1.5));
#2770=DIRECTION('',(-1.,0.,0.));
#2780=VECTOR('',#2770,1.);
#2790=LINE('',#2760,#2780);
#2800=CARTESIAN_POINT('',(-38.7,4.50000039527819,1.5));
#2810=VERTEX_POINT('',#2800);
#2820=EDGE_CURVE('',#2730,#2810,#2790,.T.);
#2830=ORIENTED_EDGE('',*,*,#2820,.F.);
#2840=CARTESIAN_POINT('',(-38.7,5.00000039527819,1.5));
#2850=DIRECTION('',(0.,0.,1.));
#2860=DIRECTION('',(1.,0.,0.));
#2870=AXIS2_PLACEMENT_3D('',#2840,#2850,#2860);
#2880=CIRCLE('',#2870,0.5);
#2890=CARTESIAN_POINT('',(-39.2,5.00000039527819,1.5));
#2900=VERTEX_POINT('',#2890);
#2910=EDGE_CURVE('',#2900,#2810,#2880,.T.);
#2920=ORIENTED_EDGE('',*,*,#2910,.T.);
#2930=CARTESIAN_POINT('',(-39.2,25.398516,1.5));
#2940=DIRECTION('',(0.,1.,0.));
#2950=VECTOR('',#2940,1.);
#2960=LINE('',#2930,#2950);
#2970=CARTESIAN_POINT('',(-39.2,40.5000000000211,1.5));
#2980=VERTEX_POINT('',#2970);
#2990=EDGE_CURVE('',#2900,#2980,#2960,.T.);
#3000=ORIENTED_EDGE('',*,*,#2990,.F.);
#3010=CARTESIAN_POINT('',(-38.7,40.5000000000211,1.5));
#3020=DIRECTION('',(0.,0.,1.));
#3030=DIRECTION('',(1.,0.,0.));
#3040=AXIS2_PLACEMENT_3D('',#3010,#3020,#3030);
#3050=CIRCLE('',#3040,0.5);
#3060=CARTESIAN_POINT('',(-38.7,41.0000000000211,1.5));
#3070=VERTEX_POINT('',#3060);
#3080=EDGE_CURVE('',#3070,#2980,#3050,.T.);
#3090=ORIENTED_EDGE('',*,*,#3080,.T.);
#3100=CARTESIAN_POINT('',(38.339672,41.0000000000211,1.5));
#3110=DIRECTION('',(1.,-2.22044604925031E-16,0.));
#3120=VECTOR('',#3110,1.);
#3130=LINE('',#3100,#3120);
#3140=EDGE_CURVE('',#3070,#1700,#3130,.T.);
#3150=ORIENTED_EDGE('',*,*,#3140,.F.);
#3160=EDGE_LOOP('',(#3150,#3090,#3000,#2920,#2830,#2750,#2660,#2580,
#2490,#2410,#2320,#2240,#2150,#2070,#1980,#1900,#1820,#1740));
#3170=FACE_OUTER_BOUND('',#3160,.T.);
#3180=ADVANCED_FACE('',(#3170),#1640,.T.);
#3190=CARTESIAN_POINT('',(24.7999999999983,41.0000000000211,0.));
#3200=DIRECTION('',(-4.07851081701304E-18,1.,0.));
#3210=DIRECTION('',(1.,4.07851081701304E-18,0.));
#3220=AXIS2_PLACEMENT_3D('',#3190,#3200,#3210);
#3230=PLANE('',#3220);
#3240=CARTESIAN_POINT('',(33.4997924617903,41.0000000000211,0.));
#3250=DIRECTION('',(0.,0.,1.));
#3260=VECTOR('',#3250,1.);
#3270=LINE('',#3240,#3260);
#3280=EDGE_CURVE('',#1240,#1960,#3270,.T.);
#3290=ORIENTED_EDGE('',*,*,#3280,.F.);
#3300=ORIENTED_EDGE('',*,*,#1970,.T.);
#3310=CARTESIAN_POINT('',(24.7999999999983,41.0000000000211,0.));
#3320=DIRECTION('',(0.,0.,-1.));
#3330=VECTOR('',#3320,1.);
#3340=LINE('',#3310,#3330);
#3350=EDGE_CURVE('',#1880,#1320,#3340,.T.);
#3360=ORIENTED_EDGE('',*,*,#3350,.F.);
#3370=ORIENTED_EDGE('',*,*,#1330,.F.);
#3380=EDGE_LOOP('',(#3370,#3360,#3300,#3290));
#3390=FACE_OUTER_BOUND('',#3380,.T.);
#3400=ADVANCED_FACE('',(#3390),#3230,.T.);
#3410=CARTESIAN_POINT('',(22.7253696646887,46.6999999999997,0.));
#3420=DIRECTION('',(0.939692620785908,0.342020143325669,0.));
#3430=DIRECTION('',(0.342020143325669,-0.939692620785908,0.));
#3440=AXIS2_PLACEMENT_3D('',#3410,#3420,#3430);
#3450=PLANE('',#3440);
#3460=ORIENTED_EDGE('',*,*,#3350,.T.);
#3470=ORIENTED_EDGE('',*,*,#1890,.T.);
#3480=CARTESIAN_POINT('',(22.6161785944089,46.9999999999997,0.));
#3490=DIRECTION('',(0.,0.,1.));
#3500=VECTOR('',#3490,1.);
#3510=LINE('',#3480,#3500);
#3520=EDGE_CURVE('',#1400,#1800,#3510,.T.);
#3530=ORIENTED_EDGE('',*,*,#3520,.T.);
#3540=ORIENTED_EDGE('',*,*,#1410,.F.);
#3550=EDGE_LOOP('',(#3540,#3530,#3470,#3460));
#3560=FACE_OUTER_BOUND('',#3550,.T.);
#3570=ADVANCED_FACE('',(#3560),#3450,.T.);
#3580=CARTESIAN_POINT('',(31.796601790577,47.0000000000002,
-8.90000000000001));
#3590=DIRECTION('',(-5.16334869616667E-14,1.,0.));
#3600=DIRECTION('',(-1.,-5.16334869616667E-14,0.));
#3610=AXIS2_PLACEMENT_3D('',#3580,#3590,#3600);
#3620=PLANE('',#3610);
#3630=ORIENTED_EDGE('',*,*,#3520,.F.);
#3640=ORIENTED_EDGE('',*,*,#1810,.F.);
#3650=CARTESIAN_POINT('',(-12.8358983848782,46.9999999999979,0.));
#3660=DIRECTION('',(0.,0.,-1.));
#3670=VECTOR('',#3660,1.);
#3680=LINE('',#3650,#3670);
#3690=EDGE_CURVE('',#1720,#1480,#3680,.T.);
#3700=ORIENTED_EDGE('',*,*,#3690,.F.);
#3710=ORIENTED_EDGE('',*,*,#1490,.F.);
#3720=EDGE_LOOP('',(#3710,#3700,#3640,#3630));
#3730=FACE_OUTER_BOUND('',#3720,.T.);
#3740=ADVANCED_FACE('',(#3730),#3620,.T.);
#3750=CARTESIAN_POINT('',(-13.4132486540544,46.0000000000211,0.));
#3760=DIRECTION('',(-0.866025403784432,0.500000000000012,0.));
#3770=DIRECTION('',(0.500000000000012,0.866025403784432,0.));
#3780=AXIS2_PLACEMENT_3D('',#3750,#3760,#3770);
#3790=PLANE('',#3780);
#3800=ORIENTED_EDGE('',*,*,#3690,.T.);
#3810=ORIENTED_EDGE('',*,*,#1730,.T.);
#3820=CARTESIAN_POINT('',(-16.3000000000027,41.0000000000211,0.));
#3830=DIRECTION('',(0.,0.,1.));
#3840=VECTOR('',#3830,1.);
#3850=LINE('',#3820,#3840);
#3860=EDGE_CURVE('',#130,#1700,#3850,.T.);
#3870=ORIENTED_EDGE('',*,*,#3860,.T.);
#3880=ORIENTED_EDGE('',*,*,#1550,.F.);
#3890=EDGE_LOOP('',(#3880,#3870,#3810,#3800));
#3900=FACE_OUTER_BOUND('',#3890,.T.);
#3910=ADVANCED_FACE('',(#3900),#3790,.T.);
#3920=CARTESIAN_POINT('',(-39.2,41.0000000000211,0.));
#3930=DIRECTION('',(2.22044604925031E-16,1.,0.));
#3940=DIRECTION('',(1.,-2.22044604925031E-16,0.));
#3950=AXIS2_PLACEMENT_3D('',#3920,#3930,#3940);
#3960=PLANE('',#3950);
#3970=ORIENTED_EDGE('',*,*,#140,.F.);
#3980=ORIENTED_EDGE('',*,*,#3860,.F.);
#3990=ORIENTED_EDGE('',*,*,#3140,.T.);
#4000=CARTESIAN_POINT('',(-38.7,41.0000000000211,0.));
#4010=DIRECTION('',(0.,0.,1.));
#4020=VECTOR('',#4010,1.);
#4030=LINE('',#4000,#4020);
#4040=EDGE_CURVE('',#110,#3070,#4030,.T.);
#4050=ORIENTED_EDGE('',*,*,#4040,.T.);
#4060=EDGE_LOOP('',(#4050,#3990,#3980,#3970));
#4070=FACE_OUTER_BOUND('',#4060,.T.);
#4080=ADVANCED_FACE('',(#4070),#3960,.T.);
#4090=CARTESIAN_POINT('',(-39.2,5.00000039527819,0.));
#4100=DIRECTION('',(-1.,0.,0.));
#4110=DIRECTION('',(0.,1.,0.));
#4120=AXIS2_PLACEMENT_3D('',#4090,#4100,#4110);
#4130=PLANE('',#4120);
#4140=CARTESIAN_POINT('',(-39.2,40.5000000000211,0.));
#4150=DIRECTION('',(0.,0.,1.));
#4160=VECTOR('',#4150,1.);
#4170=LINE('',#4140,#4160);
#4180=EDGE_CURVE('',#220,#2980,#4170,.T.);
#4190=ORIENTED_EDGE('',*,*,#4180,.F.);
#4200=ORIENTED_EDGE('',*,*,#2990,.T.);
#4210=CARTESIAN_POINT('',(-39.2,5.00000039527819,0.));
#4220=DIRECTION('',(0.,0.,1.));
#4230=VECTOR('',#4220,1.);
#4240=LINE('',#4210,#4230);
#4250=EDGE_CURVE('',#300,#2900,#4240,.T.);
#4260=ORIENTED_EDGE('',*,*,#4250,.T.);
#4270=ORIENTED_EDGE('',*,*,#310,.F.);
#4280=EDGE_LOOP('',(#4270,#4260,#4200,#4190));
#4290=FACE_OUTER_BOUND('',#4280,.T.);
#4300=ADVANCED_FACE('',(#4290),#4130,.T.);
#4310=CARTESIAN_POINT('',(-38.7,5.00000039527819,0.));
#4320=DIRECTION('',(0.,0.,1.));
#4330=DIRECTION('',(1.,0.,0.));
#4340=AXIS2_PLACEMENT_3D('',#4310,#4320,#4330);
#4350=CYLINDRICAL_SURFACE('',#4340,0.5);
#4360=ORIENTED_EDGE('',*,*,#4250,.F.);
#4370=ORIENTED_EDGE('',*,*,#2910,.F.);
#4380=CARTESIAN_POINT('',(-38.7,4.50000039527819,0.));
#4390=DIRECTION('',(0.,0.,1.));
#4400=VECTOR('',#4390,1.);
#4410=LINE('',#4380,#4400);
#4420=EDGE_CURVE('',#390,#2810,#4410,.T.);
#4430=ORIENTED_EDGE('',*,*,#4420,.T.);
#4440=ORIENTED_EDGE('',*,*,#400,.T.);
#4450=EDGE_LOOP('',(#4440,#4430,#4370,#4360));
#4460=FACE_OUTER_BOUND('',#4450,.T.);
#4470=ADVANCED_FACE('',(#4460),#4350,.T.);
#4480=CARTESIAN_POINT('',(-16.0000000000007,4.50000039527819,0.));
#4490=DIRECTION('',(-0.,-1.,-0.));
#4500=DIRECTION('',(-1.,0.,0.));
#4510=AXIS2_PLACEMENT_3D('',#4480,#4490,#4500);
#4520=PLANE('',#4510);
#4530=ORIENTED_EDGE('',*,*,#4420,.F.);
#4540=ORIENTED_EDGE('',*,*,#2820,.T.);
#4550=CARTESIAN_POINT('',(-16.0000000000007,4.50000039527819,0.));
#4560=DIRECTION('',(0.,0.,1.));
#4570=VECTOR('',#4560,1.);
#4580=LINE('',#4550,#4570);
#4590=EDGE_CURVE('',#470,#2730,#4580,.T.);
#4600=ORIENTED_EDGE('',*,*,#4590,.T.);
#4610=ORIENTED_EDGE('',*,*,#480,.F.);
#4620=EDGE_LOOP('',(#4610,#4600,#4540,#4530));
#4630=FACE_OUTER_BOUND('',#4620,.T.);
#4640=ADVANCED_FACE('',(#4630),#4520,.T.);
#4650=CARTESIAN_POINT('',(-16.0000000000007,3.50000039527819,0.));
#4660=DIRECTION('',(0.,0.,1.));
#4670=DIRECTION('',(1.,0.,0.));
#4680=AXIS2_PLACEMENT_3D('',#4650,#4660,#4670);
#4690=CYLINDRICAL_SURFACE('',#4680,1.);
#4700=ORIENTED_EDGE('',*,*,#4590,.F.);
#4710=ORIENTED_EDGE('',*,*,#2740,.T.);
#4720=CARTESIAN_POINT('',(-15.0000000000007,3.50000039527819,0.));
#4730=DIRECTION('',(0.,0.,1.));
#4740=VECTOR('',#4730,1.);
#4750=LINE('',#4720,#4740);
#4760=EDGE_CURVE('',#560,#2640,#4750,.T.);
#4770=ORIENTED_EDGE('',*,*,#4760,.T.);
#4780=ORIENTED_EDGE('',*,*,#570,.F.);
#4790=EDGE_LOOP('',(#4780,#4770,#4710,#4700));
#4800=FACE_OUTER_BOUND('',#4790,.T.);
#4810=ADVANCED_FACE('',(#4800),#4690,.F.);
#4820=CARTESIAN_POINT('',(-15.0000000000007,1.50000039527818,0.));
#4830=DIRECTION('',(-1.,0.,0.));
#4840=DIRECTION('',(0.,1.,0.));
#4850=AXIS2_PLACEMENT_3D('',#4820,#4830,#4840);
#4860=PLANE('',#4850);
#4870=ORIENTED_EDGE('',*,*,#4760,.F.);
#4880=ORIENTED_EDGE('',*,*,#2650,.T.);
#4890=CARTESIAN_POINT('',(-15.0000000000007,1.50000039527818,0.));
#4900=DIRECTION('',(0.,0.,1.));
#4910=VECTOR('',#4900,1.);
#4920=LINE('',#4890,#4910);
#4930=EDGE_CURVE('',#640,#2560,#4920,.T.);
#4940=ORIENTED_EDGE('',*,*,#4930,.T.);
#4950=ORIENTED_EDGE('',*,*,#650,.F.);
#4960=EDGE_LOOP('',(#4950,#4940,#4880,#4870));
#4970=FACE_OUTER_BOUND('',#4960,.T.);
#4980=ADVANCED_FACE('',(#4970),#4860,.T.);
#4990=CARTESIAN_POINT('',(-13.5000000000007,1.50000039527818,0.));
#5000=DIRECTION('',(0.,0.,1.));
#5010=DIRECTION('',(1.,0.,0.));
#5020=AXIS2_PLACEMENT_3D('',#4990,#5000,#5010);
#5030=CYLINDRICAL_SURFACE('',#5020,1.5);
#5040=ORIENTED_EDGE('',*,*,#4930,.F.);
#5050=ORIENTED_EDGE('',*,*,#2570,.F.);
#5060=CARTESIAN_POINT('',(-13.5000000000007,3.95278178189074E-7,0.));
#5070=DIRECTION('',(0.,0.,1.));
#5080=VECTOR('',#5070,1.);
#5090=LINE('',#5060,#5080);
#5100=EDGE_CURVE('',#730,#2470,#5090,.T.);
#5110=ORIENTED_EDGE('',*,*,#5100,.T.);
#5120=ORIENTED_EDGE('',*,*,#740,.T.);
#5130=EDGE_LOOP('',(#5120,#5110,#5050,#5040));
#5140=FACE_OUTER_BOUND('',#5130,.T.);
#5150=ADVANCED_FACE('',(#5140),#5030,.T.);
#5160=CARTESIAN_POINT('',(37.7,4.2632564145606E-14,0.));
#5170=DIRECTION('',(-0.,-1.,-0.));
#5180=DIRECTION('',(-1.,0.,0.));
#5190=AXIS2_PLACEMENT_3D('',#5160,#5170,#5180);
#5200=PLANE('',#5190);
#5210=ORIENTED_EDGE('',*,*,#5100,.F.);
#5220=ORIENTED_EDGE('',*,*,#2480,.T.);
#5230=CARTESIAN_POINT('',(37.7,4.2632564145606E-14,0.));
#5240=DIRECTION('',(0.,0.,1.));
#5250=VECTOR('',#5240,1.);
#5260=LINE('',#5230,#5250);
#5270=EDGE_CURVE('',#810,#2390,#5260,.T.);
#5280=ORIENTED_EDGE('',*,*,#5270,.T.);
#5290=ORIENTED_EDGE('',*,*,#820,.F.);
#5300=EDGE_LOOP('',(#5290,#5280,#5220,#5210));
#5310=FACE_OUTER_BOUND('',#5300,.T.);
#5320=ADVANCED_FACE('',(#5310),#5200,.T.);
#5330=CARTESIAN_POINT('',(37.7,1.50000000000004,0.));
#5340=DIRECTION('',(0.,0.,1.));
#5350=DIRECTION('',(1.,0.,0.));
#5360=AXIS2_PLACEMENT_3D('',#5330,#5340,#5350);
#5370=CYLINDRICAL_SURFACE('',#5360,1.5);
#5380=ORIENTED_EDGE('',*,*,#5270,.F.);
#5390=ORIENTED_EDGE('',*,*,#2400,.F.);
#5400=CARTESIAN_POINT('',(39.2,1.50000000000004,0.));
#5410=DIRECTION('',(0.,0.,1.));
#5420=VECTOR('',#5410,1.);
#5430=LINE('',#5400,#5420);
#5440=EDGE_CURVE('',#900,#2300,#5430,.T.);
#5450=ORIENTED_EDGE('',*,*,#5440,.T.);
#5460=ORIENTED_EDGE('',*,*,#910,.T.);
#5470=EDGE_LOOP('',(#5460,#5450,#5390,#5380));
#5480=FACE_OUTER_BOUND('',#5470,.T.);
#5490=ADVANCED_FACE('',(#5480),#5370,.T.);
#5500=CARTESIAN_POINT('',(39.2,26.909958941331,0.));
#5510=DIRECTION('',(1.,0.,0.));
#5520=DIRECTION('',(0.,-1.,0.));
#5530=AXIS2_PLACEMENT_3D('',#5500,#5510,#5520);
#5540=PLANE('',#5530);
#5550=ORIENTED_EDGE('',*,*,#5440,.F.);
#5560=ORIENTED_EDGE('',*,*,#2310,.T.);
#5570=CARTESIAN_POINT('',(39.2,26.909958941331,0.));
#5580=DIRECTION('',(0.,0.,1.));
#5590=VECTOR('',#5580,1.);
#5600=LINE('',#5570,#5590);
#5610=EDGE_CURVE('',#980,#2220,#5600,.T.);
#5620=ORIENTED_EDGE('',*,*,#5610,.T.);
#5630=ORIENTED_EDGE('',*,*,#990,.F.);
#5640=EDGE_LOOP('',(#5630,#5620,#5560,#5550));
#5650=FACE_OUTER_BOUND('',#5640,.T.);
#5660=ADVANCED_FACE('',(#5650),#5540,.T.);
#5670=CARTESIAN_POINT('',(37.2,26.909958941331,0.));
#5680=DIRECTION('',(0.,0.,1.));
#5690=DIRECTION('',(1.,0.,0.));
#5700=AXIS2_PLACEMENT_3D('',#5670,#5680,#5690);
#5710=CYLINDRICAL_SURFACE('',#5700,2.);
#5720=ORIENTED_EDGE('',*,*,#5610,.F.);
#5730=ORIENTED_EDGE('',*,*,#2230,.F.);
#5740=CARTESIAN_POINT('',(39.0793852415718,27.5939992279824,0.));
#5750=DIRECTION('',(0.,0.,1.));
#5760=VECTOR('',#5750,1.);
#5770=LINE('',#5740,#5760);
#5780=EDGE_CURVE('',#1070,#2130,#5770,.T.);
#5790=ORIENTED_EDGE('',*,*,#5780,.T.);
#5800=ORIENTED_EDGE('',*,*,#1080,.T.);
#5810=EDGE_LOOP('',(#5800,#5790,#5730,#5720));
#5820=FACE_OUTER_BOUND('',#5810,.T.);
#5830=ADVANCED_FACE('',(#5820),#5710,.T.);
#5840=CARTESIAN_POINT('',(34.4394850825762,40.3420201433468,0.));
#5850=DIRECTION('',(0.939692620785908,0.342020143325669,0.));
#5860=DIRECTION('',(0.342020143325669,-0.939692620785908,0.));
#5870=AXIS2_PLACEMENT_3D('',#5840,#5850,#5860);
#5880=PLANE('',#5870);
#5890=ORIENTED_EDGE('',*,*,#5780,.F.);
#5900=ORIENTED_EDGE('',*,*,#2140,.T.);
#5910=CARTESIAN_POINT('',(34.4394850825762,40.3420201433468,0.));
#5920=DIRECTION('',(0.,0.,1.));
#5930=VECTOR('',#5920,1.);
#5940=LINE('',#5910,#5930);
#5950=EDGE_CURVE('',#1150,#2050,#5940,.T.);
#5960=ORIENTED_EDGE('',*,*,#5950,.T.);
#5970=ORIENTED_EDGE('',*,*,#1160,.F.);
#5980=EDGE_LOOP('',(#5970,#5960,#5900,#5890));
#5990=FACE_OUTER_BOUND('',#5980,.T.);
#6000=ADVANCED_FACE('',(#5990),#5880,.T.);
#6010=CARTESIAN_POINT('',(33.4997924617903,40.0000000000211,0.));
#6020=DIRECTION('',(0.,0.,-1.));
#6030=DIRECTION('',(0.,-1.,0.));
#6040=AXIS2_PLACEMENT_3D('',#6010,#6020,#6030);
#6050=CYLINDRICAL_SURFACE('',#6040,1.);
#6060=ORIENTED_EDGE('',*,*,#5950,.F.);
#6070=ORIENTED_EDGE('',*,*,#2060,.T.);
#6080=ORIENTED_EDGE('',*,*,#3280,.T.);
#6090=ORIENTED_EDGE('',*,*,#1250,.F.);
#6100=EDGE_LOOP('',(#6090,#6080,#6070,#6060));
#6110=FACE_OUTER_BOUND('',#6100,.T.);
#6120=ADVANCED_FACE('',(#6110),#6050,.T.);
#6130=CARTESIAN_POINT('',(-38.7,40.5000000000211,0.));
#6140=DIRECTION('',(0.,0.,1.));
#6150=DIRECTION('',(1.,0.,0.));
#6160=AXIS2_PLACEMENT_3D('',#6130,#6140,#6150);
#6170=CYLINDRICAL_SURFACE('',#6160,0.5);
#6180=ORIENTED_EDGE('',*,*,#3080,.F.);
#6190=ORIENTED_EDGE('',*,*,#4180,.T.);
#6200=ORIENTED_EDGE('',*,*,#230,.T.);
#6210=ORIENTED_EDGE('',*,*,#4040,.F.);
#6220=EDGE_LOOP('',(#6210,#6200,#6190,#6180));
#6230=FACE_OUTER_BOUND('',#6220,.T.);
#6240=ADVANCED_FACE('',(#6230),#6170,.T.);
#6250=CLOSED_SHELL('',(#3400,#3570,#3740,#3910,#4080,#4300,#4470,#4640,
#4810,#4980,#5150,#5320,#5490,#5660,#5830,#6000,#6120,#6240,#3180,#1590)
);
#6260=MANIFOLD_SOLID_BREP('',#6250);
#6270=CARTESIAN_POINT('',(0.,0.,0.));
#6280=DIRECTION('',(0.,0.,1.));
#6290=DIRECTION('',(1.,0.,0.));
#6300=AXIS2_PLACEMENT_3D('',#6270,#6280,#6290);
#6310=APPLICATION_CONTEXT(' ');
#6320=APPLICATION_PROTOCOL_DEFINITION(' ','automotive_design',1998,#6310
);
#6330=PRODUCT_CONTEXT('',#6310,'mechanical');
#6340=PRODUCT_DEFINITION_CONTEXT('part definition',#6310,'design');
#6350=PRODUCT('SFR.6-PT','SFR.6-PT','',(#6330));
#6360=PRODUCT_RELATED_PRODUCT_CATEGORY('part',' ',(#6350));
#6370=PRODUCT_DEFINITION_FORMATION_WITH_SPECIFIED_SOURCE('','',#6350,
.BOUGHT.);
#6380=PRODUCT_DEFINITION('',' ',#6370,#6340);
#6390=PRODUCT_DEFINITION_SHAPE('','',#6380);
#6400=DIMENSIONAL_EXPONENTS(1.,0.,0.,0.,0.,0.,0.);
#6410=DIMENSIONAL_EXPONENTS(0.,0.,0.,0.,0.,0.,0.);
#6420=DIMENSIONAL_EXPONENTS(0.,0.,0.,0.,0.,0.,0.);
#6430=(LENGTH_UNIT() NAMED_UNIT(*) SI_UNIT(.MILLI.,.METRE.));
#6440=(NAMED_UNIT(*) PLANE_ANGLE_UNIT() SI_UNIT($,.RADIAN.));
#6450=(NAMED_UNIT(*) SI_UNIT($,.STERADIAN.) SOLID_ANGLE_UNIT());
#6460=(GEOMETRIC_REPRESENTATION_CONTEXT(3) 
GLOBAL_UNCERTAINTY_ASSIGNED_CONTEXT((#6470)) 
GLOBAL_UNIT_ASSIGNED_CONTEXT((#6430,#6440,#6450)) REPRESENTATION_CONTEXT
('',''));
#6470=UNCERTAINTY_MEASURE_WITH_UNIT(LENGTH_MEASURE(1.E-6),#6430,
'distance_accuracy_value','maximum gap value');
#6480=ADVANCED_BREP_SHAPE_REPRESENTATION('',(#6300,#6260),#6460);
#6490=SHAPE_DEFINITION_REPRESENTATION(#6390,#6480);
#6500=COLOUR_RGB('',0.756862819194794,0.756862819194794,
0.756862819194794);
#6510=FILL_AREA_STYLE_COLOUR('',#6500);
#6520=FILL_AREA_STYLE('',(#6510));
#6530=SURFACE_STYLE_FILL_AREA(#6520);
#6540=SURFACE_SIDE_STYLE('',(#6530));
#6550=SURFACE_STYLE_USAGE(.BOTH.,#6540);
#6560=PRESENTATION_STYLE_ASSIGNMENT((#6550));
#6570=STYLED_ITEM('',(#6560),#6260);
#6580=DRAUGHTING_MODEL('',(#6570),#6460);
#6590=CARTESIAN_POINT('',(-5.24999999999966,12.0250000000001,
-0.999999999999999));
#6600=DIRECTION('',(0.,0.,1.));
#6610=DIRECTION('',(1.,0.,0.));
#6620=AXIS2_PLACEMENT_3D('',#6590,#6600,#6610);
#6630=ITEM_DEFINED_TRANSFORMATION('SFR.6-PT','',#6300,#6620);
#6640=APPLICATION_CONTEXT(' ');
#6650=APPLICATION_PROTOCOL_DEFINITION(' ','automotive_design',1998,#6640
);
#6660=PRODUCT_CONTEXT('',#6640,'mechanical');
#6670=PRODUCT_DEFINITION_CONTEXT('part definition',#6640,'design');
#6680=PRODUCT('SFR.6-PT','SFR.6-PT','',(#6660));
#6690=PRODUCT_RELATED_PRODUCT_CATEGORY('part',' ',(#6680));
#6700=PRODUCT_DEFINITION_FORMATION_WITH_SPECIFIED_SOURCE('','',#6680,
.BOUGHT.);
#6710=PRODUCT_DEFINITION('',' ',#6700,#6670);
#6720=PRODUCT_DEFINITION_SHAPE('','',#6710);
#6730=DIMENSIONAL_EXPONENTS(1.,0.,0.,0.,0.,0.,0.);
#6740=DIMENSIONAL_EXPONENTS(0.,0.,0.,0.,0.,0.,0.);
#6750=DIMENSIONAL_EXPONENTS(0.,0.,0.,0.,0.,0.,0.);
#6760=(LENGTH_UNIT() NAMED_UNIT(*) SI_UNIT(.MILLI.,.METRE.));
#6770=(NAMED_UNIT(*) PLANE_ANGLE_UNIT() SI_UNIT($,.RADIAN.));
#6780=(NAMED_UNIT(*) SI_UNIT($,.STERADIAN.) SOLID_ANGLE_UNIT());
#6790=(GEOMETRIC_REPRESENTATION_CONTEXT(3) 
GLOBAL_UNCERTAINTY_ASSIGNED_CONTEXT((#6800)) 
GLOBAL_UNIT_ASSIGNED_CONTEXT((#6760,#6770,#6780)) REPRESENTATION_CONTEXT
('',''));
#6800=UNCERTAINTY_MEASURE_WITH_UNIT(LENGTH_MEASURE(1.E-6),#6760,
'distance_accuracy_value','maximum gap value');
#6810=SHAPE_REPRESENTATION('',(#6300,#6620),#6790);
#6820=SHAPE_DEFINITION_REPRESENTATION(#6720,#6810);
#6830=(REPRESENTATION_RELATIONSHIP('','',#6480,#6810) 
REPRESENTATION_RELATIONSHIP_WITH_TRANSFORMATION(#6630) 
SHAPE_REPRESENTATION_RELATIONSHIP());
#6840=NEXT_ASSEMBLY_USAGE_OCCURRENCE('1','','SFR.6-PT',#6710,#6380,'');
#6850=PRODUCT_DEFINITION_SHAPE('','',#6840);
#6860=CONTEXT_DEPENDENT_SHAPE_REPRESENTATION(#6830,#6850);
ENDSEC;
END-ISO-10303-21;
