ISO-10303-21;
HEADER;
FILE_DESCRIPTION (( 'STEP AP203' ),
    '1' );
FILE_NAME ('CTA12D-M090-K02 Ìóôòà ñîåäèíèòåëüíàÿ äëÿ äâóñòåííîé òðóáû d90.STEP',
    '2016-06-20T13:41:21',
    ( '' ),
    ( '' ),
    'SwSTEP 2.0',
    'SolidWorks 2014',
    '' );
FILE_SCHEMA (( 'CONFIG_CONTROL_DESIGN' ));
ENDSEC;

DATA;
#1 = APPROVAL_PERSON_ORGANIZATION ( #54, #40, #194 ) ;
#2 = DIRECTION ( 'NONE',  ( -0.0000000000000000000, 0.0000000000000000000, 1.000000000000000000 ) ) ;
#3 = DIRECTION ( 'NONE',  ( -1.000000000000000000, 0.0000000000000000000, -0.0000000000000000000 ) ) ;
#4 = EDGE_LOOP ( 'NONE', ( #107 ) ) ;
#5 = CARTESIAN_POINT ( 'NONE',  ( -70.00000000000002800, 45.50000000000000000, 0.0000000000000000000 ) ) ;
#6 = PLANE ( 'NONE',  #48 ) ;
#7 = DIRECTION ( 'NONE',  ( 0.0000000000000000000, 0.0000000000000000000, -1.000000000000000000 ) ) ;
#8 = PLANE ( 'NONE',  #39 ) ;
#9 = FACE_OUTER_BOUND ( 'NONE', #26, .T. ) ;
#10 = CARTESIAN_POINT ( 'NONE',  ( -1229.991103041891800, 0.0000000000000000000, 0.0000000000000000000 ) ) ;
#11 = EDGE_LOOP ( 'NONE', ( #130 ) ) ;
#12 = DIRECTION ( 'NONE',  ( 1.000000000000000000, 0.0000000000000000000, 0.0000000000000000000 ) ) ;
#13 = CARTESIAN_POINT ( 'NONE',  ( 1.500000000000056800, 0.0000000000000000000, 0.0000000000000000000 ) ) ;
#14 = COORDINATED_UNIVERSAL_TIME_OFFSET ( 3, 0, .AHEAD. ) ;
#15 = DIRECTION ( 'NONE',  ( 0.0000000000000000000, 0.0000000000000000000, 1.000000000000000000 ) ) ;
#16 = ORIENTED_EDGE ( 'NONE', *, *, #126, .F. ) ;
#17 = SECURITY_CLASSIFICATION ( '', '', #161 ) ;
#18 = DIRECTION ( 'NONE',  ( -1.000000000000000000, -0.0000000000000000000, -0.0000000000000000000 ) ) ;
#19 = AXIS2_PLACEMENT_3D ( 'NONE', #219, #213, #240 ) ;
#20 = DIRECTION ( 'NONE',  ( -1.000000000000000000, -0.0000000000000000000, -0.0000000000000000000 ) ) ;
#21 = CARTESIAN_POINT ( 'NONE',  ( 70.00000000000005700, 0.0000000000000000000, 0.0000000000000000000 ) ) ;
#22 = FACE_BOUND ( 'NONE', #167, .T. ) ;
#23 = APPROVAL ( #138, 'UNSPECIFIED' ) ;
#24 = LOCAL_TIME ( 16, 41, 21.00000000000000000, #61 ) ;
#25 = EDGE_LOOP ( 'NONE', ( #214 ) ) ;
#26 = EDGE_LOOP ( 'NONE', ( #128 ) ) ;
#27 = PRODUCT_DEFINITION_SHAPE ( 'NONE', 'NONE',  #99 ) ;
#28 = CC_DESIGN_SECURITY_CLASSIFICATION ( #17, ( #173 ) ) ;
#29 = ORIENTED_EDGE ( 'NONE', *, *, #100, .T. ) ;
#30 = CYLINDRICAL_SURFACE ( 'NONE', #241, 47.00000000000000000 ) ;
#31 = ORGANIZATION ( 'UNSPECIFIED', 'UNSPECIFIED', '' ) ;
#32 = EDGE_CURVE ( 'NONE', #120, #120, #50, .T. ) ;
#33 = FACE_BOUND ( 'NONE', #187, .T. ) ;
#34 = CC_DESIGN_APPROVAL ( #23, ( #17 ) ) ;
#35 = FACE_OUTER_BOUND ( 'NONE', #102, .T. ) ;
#36 = DIRECTION ( 'NONE',  ( 0.0000000000000000000, 0.0000000000000000000, 1.000000000000000000 ) ) ;
#37 = APPROVAL_DATE_TIME ( #74, #23 ) ;
#38 = DIRECTION ( 'NONE',  ( -1.000000000000000000, -0.0000000000000000000, -0.0000000000000000000 ) ) ;
#39 = AXIS2_PLACEMENT_3D ( 'NONE', #5, #12, #7 ) ;
#40 = APPROVAL ( #207, 'UNSPECIFIED' ) ;
#41 = DIRECTION ( 'NONE',  ( 0.0000000000000000000, 0.0000000000000000000, 1.000000000000000000 ) ) ;
#42 = APPROVAL_PERSON_ORGANIZATION ( #78, #23, #162 ) ;
#43 = EDGE_CURVE ( 'NONE', #117, #117, #82, .T. ) ;
#44 = VERTEX_POINT ( 'NONE', #182 ) ;
#45 = CC_DESIGN_PERSON_AND_ORGANIZATION_ASSIGNMENT ( #81, #136, ( #17 ) ) ;
#46 = COORDINATED_UNIVERSAL_TIME_OFFSET ( 3, 0, .AHEAD. ) ;
#47 = CONICAL_SURFACE ( 'NONE', #65, 45.50000000000000000, 1.265363707695967200 ) ;
#48 = AXIS2_PLACEMENT_3D ( 'NONE', #227, #3, #2 ) ;
#49 = DATE_AND_TIME ( #86, #123 ) ;
#50 = CIRCLE ( 'NONE', #89, 44.00000000000004300 ) ;
#51 = AXIS2_PLACEMENT_3D ( 'NONE', #232, #20, #41 ) ;
#52 = CYLINDRICAL_SURFACE ( 'NONE', #75, 45.50000000000000000 ) ;
#53 = CC_DESIGN_DATE_AND_TIME_ASSIGNMENT ( #114, #137, ( #17 ) ) ;
#54 = PERSON_AND_ORGANIZATION ( #236, #31 ) ;
#55 = ORIENTED_EDGE ( 'NONE', *, *, #43, .T. ) ;
#56 = FACE_OUTER_BOUND ( 'NONE', #25, .T. ) ;
#57 = EDGE_LOOP ( 'NONE', ( #63 ) ) ;
#58 = PERSON_AND_ORGANIZATION ( #236, #31 ) ;
#59 = EDGE_LOOP ( 'NONE', ( #222 ) ) ;
#60 = AXIS2_PLACEMENT_3D ( 'NONE', #13, #18, #15 ) ;
#61 = COORDINATED_UNIVERSAL_TIME_OFFSET ( 3, 0, .AHEAD. ) ;
#62 = EDGE_LOOP ( 'NONE', ( #66 ) ) ;
#63 = ORIENTED_EDGE ( 'NONE', *, *, #32, .F. ) ;
#64 = PRODUCT_RELATED_PRODUCT_CATEGORY ( 'detail', '', ( #234 ) ) ;
#65 = AXIS2_PLACEMENT_3D ( 'NONE', #168, #172, #169 ) ;
#66 = ORIENTED_EDGE ( 'NONE', *, *, #125, .T. ) ;
#67 = CC_DESIGN_PERSON_AND_ORGANIZATION_ASSIGNMENT ( #118, #191, ( #173 ) ) ;
#68 = DIRECTION ( 'NONE',  ( 0.0000000000000000000, 0.0000000000000000000, 1.000000000000000000 ) ) ;
#69 = AXIS2_PLACEMENT_3D ( 'NONE', #73, #155, #36 ) ;
#70 = FACE_OUTER_BOUND ( 'NONE', #59, .T. ) ;
#71 = DIRECTION ( 'NONE',  ( 0.0000000000000000000, 0.0000000000000000000, 1.000000000000000000 ) ) ;
#72 = DIRECTION ( 'NONE',  ( 0.0000000000000000000, 0.0000000000000000000, 1.000000000000000000 ) ) ;
#73 = CARTESIAN_POINT ( 'NONE',  ( 1.972948183318390400, 0.0000000000000000000, 0.0000000000000000000 ) ) ;
#74 = DATE_AND_TIME ( #112, #142 ) ;
#75 = AXIS2_PLACEMENT_3D ( 'NONE', #10, #246, #231 ) ;
#76 = VERTEX_POINT ( 'NONE', #190 ) ;
#77 = CC_DESIGN_APPROVAL ( #40, ( #173 ) ) ;
#78 = PERSON_AND_ORGANIZATION ( #236, #31 ) ;
#79 = EDGE_CURVE ( 'NONE', #80, #80, #153, .T. ) ;
#80 = VERTEX_POINT ( 'NONE', #180 ) ;
#81 = PERSON_AND_ORGANIZATION ( #236, #31 ) ;
#82 = CIRCLE ( 'NONE', #60, 44.00000000000004300 ) ;
#83 = SHAPE_DEFINITION_REPRESENTATION ( #27, #98 ) ;
#84 =( GEOMETRIC_REPRESENTATION_CONTEXT ( 3 ) GLOBAL_UNCERTAINTY_ASSIGNED_CONTEXT ( ( #111 ) ) GLOBAL_UNIT_ASSIGNED_CONTEXT ( ( #184, #183, #196 ) ) REPRESENTATION_CONTEXT ( 'NONE', 'WORKASPACE' ) );
#85 = CIRCLE ( 'NONE', #148, 45.50000000000000000 ) ;
#86 = CALENDAR_DATE ( 2016, 20, 6 ) ;
#87 = CIRCLE ( 'NONE', #19, 45.50000000000000000 ) ;
#88 = CC_DESIGN_PERSON_AND_ORGANIZATION_ASSIGNMENT ( #152, #193, ( #173 ) ) ;
#89 = AXIS2_PLACEMENT_3D ( 'NONE', #164, #38, #217 ) ;
#90 = FACE_OUTER_BOUND ( 'NONE', #11, .T. ) ;
#91 = ORIENTED_EDGE ( 'NONE', *, *, #125, .F. ) ;
#92 = DATE_AND_TIME ( #129, #171 ) ;
#93 = ORIENTED_EDGE ( 'NONE', *, *, #79, .T. ) ;
#94 = CONICAL_SURFACE ( 'NONE', #165, 44.00000000000004300, 1.265363707695967200 ) ;
#95 = AXIS2_PLACEMENT_3D ( 'NONE', #188, #185, #170 ) ;
#96 = APPROVAL_DATE_TIME ( #132, #206 ) ;
#97 = EDGE_LOOP ( 'NONE', ( #245 ) ) ;
#98 = ADVANCED_BREP_SHAPE_REPRESENTATION ( 'CTA12D-M090-K02 ¦º¯ªð ¸þõôøýøªõû¹ýð  ôû  ôòº¸ªõýýþù ª¨ºñv d90', ( #218, #122 ), #84 ) ;
#99 = PRODUCT_DEFINITION ( 'UNKNOWN', '', #173, #106 ) ;
#100 = EDGE_CURVE ( 'NONE', #44, #44, #87, .T. ) ;
#101 = APPROVAL_PERSON_ORGANIZATION ( #134, #206, #200 ) ;
#102 = EDGE_LOOP ( 'NONE', ( #141 ) ) ;
#103 = FACE_OUTER_BOUND ( 'NONE', #110, .T. ) ;
#104 = CIRCLE ( 'NONE', #51, 47.00000000000000000 ) ;
#105 = CC_DESIGN_APPROVAL ( #206, ( #99 ) ) ;
#106 = DESIGN_CONTEXT ( 'detailed design', #197, 'design' ) ;
#107 = ORIENTED_EDGE ( 'NONE', *, *, #126, .T. ) ;
#108 = EDGE_CURVE ( 'NONE', #235, #235, #104, .T. ) ;
#109 = FACE_OUTER_BOUND ( 'NONE', #97, .T. ) ;
#110 = EDGE_LOOP ( 'NONE', ( #160 ) ) ;
#111 = UNCERTAINTY_MEASURE_WITH_UNIT (LENGTH_MEASURE( 1.000000000000000100E-005 ), #184, 'distance_accuracy_value', 'NONE');
#112 = CALENDAR_DATE ( 2016, 20, 6 ) ;
#113 = VERTEX_POINT ( 'NONE', #174 ) ;
#114 = DATE_AND_TIME ( #146, #239 ) ;
#115 = CC_DESIGN_PERSON_AND_ORGANIZATION_ASSIGNMENT ( #203, #198, ( #234 ) ) ;
#116 = EDGE_CURVE ( 'NONE', #145, #145, #156, .T. ) ;
#117 = VERTEX_POINT ( 'NONE', #181 ) ;
#118 = PERSON_AND_ORGANIZATION ( #236, #31 ) ;
#119 = ORIENTED_EDGE ( 'NONE', *, *, #32, .T. ) ;
#120 = VERTEX_POINT ( 'NONE', #178 ) ;
#121 = FACE_OUTER_BOUND ( 'NONE', #247, .T. ) ;
#122 = AXIS2_PLACEMENT_3D ( 'NONE', #177, #189, #204 ) ;
#123 = LOCAL_TIME ( 16, 41, 21.00000000000000000, #159 ) ;
#124 = EDGE_LOOP ( 'NONE', ( #119 ) ) ;
#125 = EDGE_CURVE ( 'NONE', #113, #113, #216, .T. ) ;
#126 = EDGE_CURVE ( 'NONE', #76, #76, #85, .T. ) ;
#127 = FACE_OUTER_BOUND ( 'NONE', #139, .T. ) ;
#128 = ORIENTED_EDGE ( 'NONE', *, *, #108, .T. ) ;
#129 = CALENDAR_DATE ( 2016, 20, 6 ) ;
#130 = ORIENTED_EDGE ( 'NONE', *, *, #43, .F. ) ;
#131 = FACE_BOUND ( 'NONE', #57, .T. ) ;
#132 = DATE_AND_TIME ( #186, #24 ) ;
#133 = AXIS2_PLACEMENT_3D ( 'NONE', #21, #237, #238 ) ;
#134 = PERSON_AND_ORGANIZATION ( #236, #31 ) ;
#135 = FACE_OUTER_BOUND ( 'NONE', #4, .T. ) ;
#136 = PERSON_AND_ORGANIZATION_ROLE ( 'classification_officer' ) ;
#137 = DATE_TIME_ROLE ( 'classification_date' ) ;
#138 = APPROVAL_STATUS ( 'not_yet_approved' ) ;
#139 = EDGE_LOOP ( 'NONE', ( #93 ) ) ;
#140 = AXIS2_PLACEMENT_3D ( 'NONE', #233, #223, #71 ) ;
#141 = ORIENTED_EDGE ( 'NONE', *, *, #116, .F. ) ;
#142 = LOCAL_TIME ( 16, 41, 21.00000000000000000, #230 ) ;
#143 = ADVANCED_FACE ( 'NONE', ( #121, #135 ), #158, .F. ) ;
#144 = ADVANCED_FACE ( 'NONE', ( #70, #109 ), #30, .T. ) ;
#145 = VERTEX_POINT ( 'NONE', #175 ) ;
#146 = CALENDAR_DATE ( 2016, 20, 6 ) ;
#147 = ADVANCED_FACE ( 'NONE', ( #103, #22 ), #94, .F. ) ;
#148 = AXIS2_PLACEMENT_3D ( 'NONE', #210, #212, #72 ) ;
#149 = ADVANCED_FACE ( 'NONE', ( #35, #249 ), #6, .F. ) ;
#150 = ADVANCED_FACE ( 'NONE', ( #33, #9 ), #8, .F. ) ;
#151 = ADVANCED_FACE ( 'NONE', ( #56, #127 ), #52, .F. ) ;
#152 = PERSON_AND_ORGANIZATION ( #236, #31 ) ;
#153 = CIRCLE ( 'NONE', #69, 45.50000000000000000 ) ;
#154 = ADVANCED_FACE ( 'NONE', ( #131, #248 ), #47, .F. ) ;
#155 = DIRECTION ( 'NONE',  ( -1.000000000000000000, -0.0000000000000000000, -0.0000000000000000000 ) ) ;
#156 = CIRCLE ( 'NONE', #133, 47.00000000000000000 ) ;
#157 = ADVANCED_FACE ( 'NONE', ( #90, #179 ), #242, .F. ) ;
#158 = CYLINDRICAL_SURFACE ( 'NONE', #226, 45.50000000000000000 ) ;
#159 = COORDINATED_UNIVERSAL_TIME_OFFSET ( 3, 0, .AHEAD. ) ;
#160 = ORIENTED_EDGE ( 'NONE', *, *, #79, .F. ) ;
#161 = SECURITY_CLASSIFICATION_LEVEL ( 'unclassified' ) ;
#162 = APPROVAL_ROLE ( '' ) ;
#163 = CLOSED_SHELL ( 'NONE', ( #143, #154, #157, #147, #151, #149, #144, #150 ) ) ;
#164 = CARTESIAN_POINT ( 'NONE',  ( -1.500000000000056800, 0.0000000000000000000, 0.0000000000000000000 ) ) ;
#165 = AXIS2_PLACEMENT_3D ( 'NONE', #224, #228, #225 ) ;
#166 = DIRECTION ( 'NONE',  ( -1.000000000000000000, -0.0000000000000000000, -0.0000000000000000000 ) ) ;
#167 = EDGE_LOOP ( 'NONE', ( #55 ) ) ;
#168 = CARTESIAN_POINT ( 'NONE',  ( -1.972948183318390400, 0.0000000000000000000, 0.0000000000000000000 ) ) ;
#169 = DIRECTION ( 'NONE',  ( 0.0000000000000000000, 0.0000000000000000000, 1.000000000000000000 ) ) ;
#170 = DIRECTION ( 'NONE',  ( 0.0000000000000000000, 0.0000000000000000000, 1.000000000000000000 ) ) ;
#171 = LOCAL_TIME ( 16, 41, 21.00000000000000000, #14 ) ;
#172 = DIRECTION ( 'NONE',  ( -1.000000000000000000, -0.0000000000000000000, -0.0000000000000000000 ) ) ;
#173 = PRODUCT_DEFINITION_FORMATION_WITH_SPECIFIED_SOURCE ( 'ANY', '', #234, .NOT_KNOWN. ) ;
#174 = CARTESIAN_POINT ( 'NONE',  ( -1.972948183318390400, 0.0000000000000000000, 45.50000000000000000 ) ) ;
#175 = CARTESIAN_POINT ( 'NONE',  ( 70.00000000000005700, 0.0000000000000000000, 47.00000000000000000 ) ) ;
#176 = CARTESIAN_POINT ( 'NONE',  ( -70.00000000000005700, 0.0000000000000000000, 47.00000000000000000 ) ) ;
#177 = CARTESIAN_POINT ( 'NONE',  ( 0.0000000000000000000, 0.0000000000000000000, 0.0000000000000000000 ) ) ;
#178 = CARTESIAN_POINT ( 'NONE',  ( -1.500000000000056800, 0.0000000000000000000, 44.00000000000004300 ) ) ;
#179 = FACE_OUTER_BOUND ( 'NONE', #124, .T. ) ;
#180 = CARTESIAN_POINT ( 'NONE',  ( 1.972948183318390400, 0.0000000000000000000, 45.50000000000000000 ) ) ;
#181 = CARTESIAN_POINT ( 'NONE',  ( 1.500000000000056800, 0.0000000000000000000, 44.00000000000004300 ) ) ;
#182 = CARTESIAN_POINT ( 'NONE',  ( 70.00000000000005700, 0.0000000000000000000, 45.50000000000000000 ) ) ;
#183 =( NAMED_UNIT ( * ) PLANE_ANGLE_UNIT ( ) SI_UNIT ( $, .RADIAN. ) );
#184 =( LENGTH_UNIT ( ) NAMED_UNIT ( * ) SI_UNIT ( .MILLI., .METRE. ) );
#185 = DIRECTION ( 'NONE',  ( -1.000000000000000000, -0.0000000000000000000, -0.0000000000000000000 ) ) ;
#186 = CALENDAR_DATE ( 2016, 20, 6 ) ;
#187 = EDGE_LOOP ( 'NONE', ( #16 ) ) ;
#188 = CARTESIAN_POINT ( 'NONE',  ( -1229.991103041891800, 0.0000000000000000000, 0.0000000000000000000 ) ) ;
#189 = DIRECTION ( 'NONE',  ( 0.0000000000000000000, 0.0000000000000000000, 1.000000000000000000 ) ) ;
#190 = CARTESIAN_POINT ( 'NONE',  ( -70.00000000000005700, 0.0000000000000000000, 45.50000000000000000 ) ) ;
#191 = PERSON_AND_ORGANIZATION_ROLE ( 'design_supplier' ) ;
#192 = EDGE_LOOP ( 'NONE', ( #29 ) ) ;
#193 = PERSON_AND_ORGANIZATION_ROLE ( 'creator' ) ;
#194 = APPROVAL_ROLE ( '' ) ;
#195 = APPLICATION_PROTOCOL_DEFINITION ( 'international standard', 'config_control_design', 1994, #205 ) ;
#196 =( NAMED_UNIT ( * ) SI_UNIT ( $, .STERADIAN. ) SOLID_ANGLE_UNIT ( ) );
#197 = APPLICATION_CONTEXT ( 'configuration controlled 3d designs of mechanical parts and assemblies' ) ;
#198 = PERSON_AND_ORGANIZATION_ROLE ( 'design_owner' ) ;
#199 = MECHANICAL_CONTEXT ( 'NONE', #205, 'mechanical' ) ;
#200 = APPROVAL_ROLE ( '' ) ;
#201 = APPROVAL_STATUS ( 'not_yet_approved' ) ;
#202 = APPLICATION_PROTOCOL_DEFINITION ( 'international standard', 'config_control_design', 1994, #197 ) ;
#203 = PERSON_AND_ORGANIZATION ( #236, #31 ) ;
#204 = DIRECTION ( 'NONE',  ( 1.000000000000000000, 0.0000000000000000000, 0.0000000000000000000 ) ) ;
#205 = APPLICATION_CONTEXT ( 'configuration controlled 3d designs of mechanical parts and assemblies' ) ;
#206 = APPROVAL ( #201, 'UNSPECIFIED' ) ;
#207 = APPROVAL_STATUS ( 'not_yet_approved' ) ;
#208 = DATE_TIME_ROLE ( 'creation_date' ) ;
#209 = PERSON_AND_ORGANIZATION_ROLE ( 'creator' ) ;
#210 = CARTESIAN_POINT ( 'NONE',  ( -70.00000000000005700, 0.0000000000000000000, 0.0000000000000000000 ) ) ;
#211 = CARTESIAN_POINT ( 'NONE',  ( -1229.991103041891800, 0.0000000000000000000, 0.0000000000000000000 ) ) ;
#212 = DIRECTION ( 'NONE',  ( -1.000000000000000000, -0.0000000000000000000, -0.0000000000000000000 ) ) ;
#213 = DIRECTION ( 'NONE',  ( -1.000000000000000000, -0.0000000000000000000, -0.0000000000000000000 ) ) ;
#214 = ORIENTED_EDGE ( 'NONE', *, *, #100, .F. ) ;
#215 = DIRECTION ( 'NONE',  ( 0.0000000000000000000, 0.0000000000000000000, 1.000000000000000000 ) ) ;
#216 = CIRCLE ( 'NONE', #140, 45.50000000000000000 ) ;
#217 = DIRECTION ( 'NONE',  ( 0.0000000000000000000, 0.0000000000000000000, 1.000000000000000000 ) ) ;
#218 = MANIFOLD_SOLID_BREP ( 'Ïîâåðíóòü1', #163 ) ;
#219 = CARTESIAN_POINT ( 'NONE',  ( 70.00000000000005700, 0.0000000000000000000, 0.0000000000000000000 ) ) ;
#220 = CARTESIAN_POINT ( 'NONE',  ( -1229.991103041891800, 0.0000000000000000000, 0.0000000000000000000 ) ) ;
#221 = DIRECTION ( 'NONE',  ( -1.000000000000000000, -0.0000000000000000000, -0.0000000000000000000 ) ) ;
#222 = ORIENTED_EDGE ( 'NONE', *, *, #108, .F. ) ;
#223 = DIRECTION ( 'NONE',  ( -1.000000000000000000, -0.0000000000000000000, -0.0000000000000000000 ) ) ;
#224 = CARTESIAN_POINT ( 'NONE',  ( 1.500000000000056800, 0.0000000000000000000, 0.0000000000000000000 ) ) ;
#225 = DIRECTION ( 'NONE',  ( 0.0000000000000000000, 0.0000000000000000000, -1.000000000000000000 ) ) ;
#226 = AXIS2_PLACEMENT_3D ( 'NONE', #211, #166, #215 ) ;
#227 = CARTESIAN_POINT ( 'NONE',  ( 70.00000000000002800, 45.50000000000000000, 0.0000000000000000000 ) ) ;
#228 = DIRECTION ( 'NONE',  ( 1.000000000000000000, 0.0000000000000000000, 0.0000000000000000000 ) ) ;
#229 = CC_DESIGN_DATE_AND_TIME_ASSIGNMENT ( #92, #208, ( #99 ) ) ;
#230 = COORDINATED_UNIVERSAL_TIME_OFFSET ( 3, 0, .AHEAD. ) ;
#231 = DIRECTION ( 'NONE',  ( 0.0000000000000000000, 0.0000000000000000000, 1.000000000000000000 ) ) ;
#232 = CARTESIAN_POINT ( 'NONE',  ( -70.00000000000005700, 0.0000000000000000000, 0.0000000000000000000 ) ) ;
#233 = CARTESIAN_POINT ( 'NONE',  ( -1.972948183318390400, 0.0000000000000000000, 0.0000000000000000000 ) ) ;
#234 = PRODUCT ( 'CTA12D-M090-K02 Ìóôòà ñîåäèíèòåëüíàÿ äëÿ äâóñòåííîé òðóáû d90', 'CTA12D-M090-K02 Ìóôòà ñîåäèíèòåëüíàÿ äëÿ äâóñòåííîé òðóáû d90', '', ( #199 ) ) ;
#235 = VERTEX_POINT ( 'NONE', #176 ) ;
#236 = PERSON ( 'UNSPECIFIED', 'UNSPECIFIED', 'UNSPECIFIED', ('UNSPECIFIED'), ('UNSPECIFIED'), ('UNSPECIFIED') ) ;
#237 = DIRECTION ( 'NONE',  ( -1.000000000000000000, -0.0000000000000000000, -0.0000000000000000000 ) ) ;
#238 = DIRECTION ( 'NONE',  ( 0.0000000000000000000, 0.0000000000000000000, 1.000000000000000000 ) ) ;
#239 = LOCAL_TIME ( 16, 41, 21.00000000000000000, #46 ) ;
#240 = DIRECTION ( 'NONE',  ( 0.0000000000000000000, 0.0000000000000000000, 1.000000000000000000 ) ) ;
#241 = AXIS2_PLACEMENT_3D ( 'NONE', #220, #221, #68 ) ;
#242 = CYLINDRICAL_SURFACE ( 'NONE', #95, 44.00000000000004300 ) ;
#243 = CC_DESIGN_PERSON_AND_ORGANIZATION_ASSIGNMENT ( #58, #209, ( #99 ) ) ;
#244 = APPROVAL_DATE_TIME ( #49, #40 ) ;
#245 = ORIENTED_EDGE ( 'NONE', *, *, #116, .T. ) ;
#246 = DIRECTION ( 'NONE',  ( -1.000000000000000000, -0.0000000000000000000, -0.0000000000000000000 ) ) ;
#247 = EDGE_LOOP ( 'NONE', ( #91 ) ) ;
#248 = FACE_OUTER_BOUND ( 'NONE', #62, .T. ) ;
#249 = FACE_BOUND ( 'NONE', #192, .T. ) ;
ENDSEC;
END-ISO-10303-21;
