ISO-10303-21;
HEADER;
FILE_DESCRIPTION (( 'STEP AP203' ),
    '1' );
FILE_NAME ('Êðûøêà íà îòâåòâèòåëü Ò-îáðàçíûé âåðòèêàëüíûé TDSR_38414.STEP',
    '2012-11-09T08:44:35',
    ( 'Àñååâ' ),
    ( '' ),
    'SwSTEP 2.0',
    'SolidWorks 2012',
    '' );
FILE_SCHEMA (( 'CONFIG_CONTROL_DESIGN' ));
ENDSEC;

DATA;
#1 = CARTESIAN_POINT ( 'NONE',  ( 251.0000000000000000, 0.0000000000000000000, 660.0000000000000000 ) ) ;
#2 = DIRECTION ( 'NONE',  ( -0.0000000000000000000, -1.000000000000000000, 0.0000000000000000000 ) ) ;
#3 = CARTESIAN_POINT ( 'NONE',  ( -251.0000000000000000, 0.5999999999999999800, 0.0000000000000000000 ) ) ;
#4 = CARTESIAN_POINT ( 'NONE',  ( 1.734723475976807100E-015, 0.5999999999999999800, 14.99999999999999300 ) ) ;
#5 = CARTESIAN_POINT ( 'NONE',  ( 251.5999999999999900, 0.0000000000000000000, 660.0000000000000000 ) ) ;
#6 = DIRECTION ( 'NONE',  ( 0.0000000000000000000, -1.000000000000000000, 0.0000000000000000000 ) ) ;
#7 = DIRECTION ( 'NONE',  ( 0.0000000000000000000, 1.000000000000000000, 0.0000000000000000000 ) ) ;
#8 = CARTESIAN_POINT ( 'NONE',  ( -251.0000000000000000, 0.5999999999999999800, 660.0000000000000000 ) ) ;
#9 = DIRECTION ( 'NONE',  ( 0.0000000000000000000, 0.0000000000000000000, 1.000000000000000000 ) ) ;
#10 = DIRECTION ( 'NONE',  ( -0.0000000000000000000, -0.0000000000000000000, -1.000000000000000000 ) ) ;
#11 = CARTESIAN_POINT ( 'NONE',  ( 251.0000000000000000, 0.0000000000000000000, 660.0000000000000000 ) ) ;
#12 = CARTESIAN_POINT ( 'NONE',  ( 251.0000000000000000, 0.0000000000000000000, 0.0000000000000000000 ) ) ;
#13 = AXIS2_PLACEMENT_3D ( 'NONE', #425, #409, #408 ) ;
#14 = AXIS2_PLACEMENT_3D ( 'NONE', #423, #418, #416 ) ;
#15 = AXIS2_PLACEMENT_3D ( 'NONE', #427, #429, #422 ) ;
#16 = AXIS2_PLACEMENT_3D ( 'NONE', #432, #431, #430 ) ;
#17 = AXIS2_PLACEMENT_3D ( 'NONE', #426, #376, #375 ) ;
#18 = AXIS2_PLACEMENT_3D ( 'NONE', #392, #380, #436 ) ;
#19 = AXIS2_PLACEMENT_3D ( 'NONE', #437, #388, #389 ) ;
#20 = AXIS2_PLACEMENT_3D ( 'NONE', #419, #403, #402 ) ;
#21 = AXIS2_PLACEMENT_3D ( 'NONE', #125, #90, #89 ) ;
#22 = AXIS2_PLACEMENT_3D ( 'NONE', #100, #97, #96 ) ;
#23 = AXIS2_PLACEMENT_3D ( 'NONE', #4, #7, #9 ) ;
#24 = EDGE_CURVE ( 'NONE', #188, #142, #133, .T. ) ;
#25 = EDGE_CURVE ( 'NONE', #184, #184, #264, .T. ) ;
#26 = EDGE_CURVE ( 'NONE', #188, #178, #130, .T. ) ;
#27 = EDGE_CURVE ( 'NONE', #180, #174, #137, .T. ) ;
#28 = EDGE_CURVE ( 'NONE', #142, #175, #131, .T. ) ;
#29 = EDGE_CURVE ( 'NONE', #190, #175, #126, .T. ) ;
#30 = EDGE_CURVE ( 'NONE', #179, #176, #127, .T. ) ;
#31 = EDGE_CURVE ( 'NONE', #185, #179, #325, .T. ) ;
#32 = EDGE_CURVE ( 'NONE', #185, #180, #273, .T. ) ;
#33 = EDGE_CURVE ( 'NONE', #177, #179, #323, .T. ) ;
#34 = EDGE_CURVE ( 'NONE', #189, #177, #318, .T. ) ;
#35 = EDGE_CURVE ( 'NONE', #189, #185, #321, .T. ) ;
#36 = EDGE_CURVE ( 'NONE', #181, #177, #310, .T. ) ;
#37 = EDGE_CURVE ( 'NONE', #191, #181, #312, .T. ) ;
#38 = EDGE_CURVE ( 'NONE', #191, #189, #316, .T. ) ;
#39 = EDGE_CURVE ( 'NONE', #181, #182, #306, .T. ) ;
#40 = EDGE_CURVE ( 'NONE', #261, #182, #308, .T. ) ;
#41 = EDGE_CURVE ( 'NONE', #191, #261, #314, .T. ) ;
#42 = EDGE_CURVE ( 'NONE', #173, #173, #302, .T. ) ;
#43 = EDGE_CURVE ( 'NONE', #172, #172, #296, .T. ) ;
#44 = EDGE_CURVE ( 'NONE', #182, #142, #304, .T. ) ;
#45 = EDGE_CURVE ( 'NONE', #261, #188, #295, .T. ) ;
#46 = EDGE_CURVE ( 'NONE', #174, #190, #299, .T. ) ;
#47 = EDGE_CURVE ( 'NONE', #178, #175, #294, .T. ) ;
#48 = EDGE_CURVE ( 'NONE', #176, #190, #300, .T. ) ;
#49 = EDGE_CURVE ( 'NONE', #174, #178, #282, .T. ) ;
#50 = EDGE_CURVE ( 'NONE', #180, #176, #280, .T. ) ;
#51 = EDGE_CURVE ( 'NONE', #171, #171, #288, .T. ) ;
#52 = PRODUCT_RELATED_PRODUCT_CATEGORY ( 'detail', '', ( #77 ) ) ;
#53 = CC_DESIGN_SECURITY_CLASSIFICATION ( #58, ( #63 ) ) ;
#54 = CC_DESIGN_APPROVAL ( #55, ( #58 ) ) ;
#55 = APPROVAL ( #332, 'UNSPECIFIED' ) ;
#56 = CC_DESIGN_DATE_AND_TIME_ASSIGNMENT ( #143, #333, ( #58 ) ) ;
#57 = CC_DESIGN_PERSON_AND_ORGANIZATION_ASSIGNMENT ( #147, #334, ( #58 ) ) ;
#58 = SECURITY_CLASSIFICATION ( '', '', #335 ) ;
#59 = CC_DESIGN_PERSON_AND_ORGANIZATION_ASSIGNMENT ( #148, #355, ( #63 ) ) ;
#60 = CC_DESIGN_PERSON_AND_ORGANIZATION_ASSIGNMENT ( #149, #351, ( #63 ) ) ;
#61 = CC_DESIGN_APPROVAL ( #62, ( #63 ) ) ;
#62 = APPROVAL ( #358, 'UNSPECIFIED' ) ;
#63 = PRODUCT_DEFINITION_FORMATION_WITH_SPECIFIED_SOURCE ( 'ANY', '', #77, .NOT_KNOWN. ) ;
#64 = CC_DESIGN_DATE_AND_TIME_ASSIGNMENT ( #157, #338, ( #68 ) ) ;
#65 = CC_DESIGN_PERSON_AND_ORGANIZATION_ASSIGNMENT ( #161, #350, ( #68 ) ) ;
#66 = CC_DESIGN_APPROVAL ( #67, ( #68 ) ) ;
#67 = APPROVAL ( #348, 'UNSPECIFIED' ) ;
#68 = PRODUCT_DEFINITION ( 'UNKNOWN', '', #63, #372 ) ;
#69 = CC_DESIGN_PERSON_AND_ORGANIZATION_ASSIGNMENT ( #169, #341, ( #77 ) ) ;
#70 = AXIS2_PLACEMENT_3D ( 'NONE', #357, #356, #339 ) ;
#71 = AXIS2_PLACEMENT_3D ( 'NONE', #373, #415, #417 ) ;
#72 = AXIS2_PLACEMENT_3D ( 'NONE', #377, #374, #379 ) ;
#73 = AXIS2_PLACEMENT_3D ( 'NONE', #381, #384, #400 ) ;
#74 =( GEOMETRIC_REPRESENTATION_CONTEXT ( 3 ) GLOBAL_UNCERTAINTY_ASSIGNED_CONTEXT ( ( #329 ) ) GLOBAL_UNIT_ASSIGNED_CONTEXT ( ( #343, #344, #345 ) ) REPRESENTATION_CONTEXT ( 'NONE', 'WORKASPACE' ) );
#75 = AXIS2_PLACEMENT_3D ( 'NONE', #391, #383, #382 ) ;
#76 = AXIS2_PLACEMENT_3D ( 'NONE', #401, #413, #390 ) ;
#77 = PRODUCT ( 'Êðûøêà íà îòâåòâèòåëü Ò-îáðàçíûé âåðòèêàëüíûé TDSR_38414', 'Êðûøêà íà îòâåòâèòåëü Ò-îáðàçíûé âåðòèêàëüíûé TDSR_38414', '', ( #340 ) ) ;
#78 = PERSON ( 'UNSPECIFIED', 'UNSPECIFIED', 'UNSPECIFIED', ('UNSPECIFIED'), ('UNSPECIFIED'), ('UNSPECIFIED') ) ;
#79 = DIRECTION ( 'NONE',  ( -0.0000000000000000000, -0.0000000000000000000, -1.000000000000000000 ) ) ;
#80 = CARTESIAN_POINT ( 'NONE',  ( 251.5999999999999900, 0.5999999999999999800, 660.0000000000000000 ) ) ;
#81 = DIRECTION ( 'NONE',  ( -1.000000000000000000, 0.0000000000000000000, 0.0000000000000000000 ) ) ;
#82 = CARTESIAN_POINT ( 'NONE',  ( 251.5999999999999900, -14.00000000000000000, 660.0000000000000000 ) ) ;
#83 = DIRECTION ( 'NONE',  ( -0.0000000000000000000, -1.000000000000000000, 0.0000000000000000000 ) ) ;
#84 = DIRECTION ( 'NONE',  ( -0.0000000000000000000, -0.0000000000000000000, -1.000000000000000000 ) ) ;
#85 = CARTESIAN_POINT ( 'NONE',  ( -251.5999999999999900, 0.5999999999999999800, 0.0000000000000000000 ) ) ;
#86 = CARTESIAN_POINT ( 'NONE',  ( 251.0000000000000000, -14.00000000000000000, 660.0000000000000000 ) ) ;
#87 = DIRECTION ( 'NONE',  ( -0.0000000000000000000, -0.0000000000000000000, -1.000000000000000000 ) ) ;
#88 = DIRECTION ( 'NONE',  ( 1.000000000000000000, 0.0000000000000000000, 0.0000000000000000000 ) ) ;
#89 = DIRECTION ( 'NONE',  ( 0.0000000000000000000, 0.0000000000000000000, 1.000000000000000000 ) ) ;
#90 = DIRECTION ( 'NONE',  ( -0.0000000000000000000, -1.000000000000000000, -0.0000000000000000000 ) ) ;
#91 = DIRECTION ( 'NONE',  ( -0.0000000000000000000, 1.000000000000000000, -0.0000000000000000000 ) ) ;
#92 = DIRECTION ( 'NONE',  ( -0.0000000000000000000, -0.0000000000000000000, -1.000000000000000000 ) ) ;
#93 = CARTESIAN_POINT ( 'NONE',  ( -251.0000000000000000, 0.0000000000000000000, 0.0000000000000000000 ) ) ;
#94 = CARTESIAN_POINT ( 'NONE',  ( -251.0000000000000000, 0.0000000000000000000, 660.0000000000000000 ) ) ;
#95 = DIRECTION ( 'NONE',  ( -0.0000000000000000000, 1.000000000000000000, -0.0000000000000000000 ) ) ;
#96 = DIRECTION ( 'NONE',  ( 0.0000000000000000000, 0.0000000000000000000, 1.000000000000000000 ) ) ;
#97 = DIRECTION ( 'NONE',  ( -0.0000000000000000000, -1.000000000000000000, -0.0000000000000000000 ) ) ;
#98 = CARTESIAN_POINT ( 'NONE',  ( -251.0000000000000000, 0.0000000000000000000, 0.0000000000000000000 ) ) ;
#99 = DIRECTION ( 'NONE',  ( -1.000000000000000000, 0.0000000000000000000, 0.0000000000000000000 ) ) ;
#100 = CARTESIAN_POINT ( 'NONE',  ( 0.0000000000000000000, 0.0000000000000000000, 645.0000000000001100 ) ) ;
#101 = DIRECTION ( 'NONE',  ( -0.0000000000000000000, -0.0000000000000000000, -1.000000000000000000 ) ) ;
#102 = CARTESIAN_POINT ( 'NONE',  ( -251.0000000000000000, -14.00000000000000000, 660.0000000000000000 ) ) ;
#103 = DIRECTION ( 'NONE',  ( -1.000000000000000000, 0.0000000000000000000, 0.0000000000000000000 ) ) ;
#104 = CARTESIAN_POINT ( 'NONE',  ( -251.0000000000000000, -14.00000000000000000, 0.0000000000000000000 ) ) ;
#105 = DIRECTION ( 'NONE',  ( 0.0000000000000000000, 1.000000000000000000, 0.0000000000000000000 ) ) ;
#106 = DIRECTION ( 'NONE',  ( -0.0000000000000000000, -0.0000000000000000000, -1.000000000000000000 ) ) ;
#107 = CARTESIAN_POINT ( 'NONE',  ( -251.0000000000000000, 0.0000000000000000000, 660.0000000000000000 ) ) ;
#108 = DIRECTION ( 'NONE',  ( 1.000000000000000000, 0.0000000000000000000, 0.0000000000000000000 ) ) ;
#109 = CARTESIAN_POINT ( 'NONE',  ( -251.5999999999999900, -14.00000000000000000, 660.0000000000000000 ) ) ;
#110 = DIRECTION ( 'NONE',  ( 0.0000000000000000000, 1.000000000000000000, 0.0000000000000000000 ) ) ;
#111 = CARTESIAN_POINT ( 'NONE',  ( -251.0000000000000000, -14.00000000000000000, 660.0000000000000000 ) ) ;
#112 = DIRECTION ( 'NONE',  ( 1.000000000000000000, 0.0000000000000000000, 0.0000000000000000000 ) ) ;
#113 = DIRECTION ( 'NONE',  ( -0.0000000000000000000, -0.0000000000000000000, -1.000000000000000000 ) ) ;
#114 = CARTESIAN_POINT ( 'NONE',  ( -251.5999999999999900, 0.0000000000000000000, 660.0000000000000000 ) ) ;
#115 = CARTESIAN_POINT ( 'NONE',  ( -251.5999999999999900, 0.5999999999999999800, 660.0000000000000000 ) ) ;
#116 = DIRECTION ( 'NONE',  ( 1.000000000000000000, 0.0000000000000000000, 0.0000000000000000000 ) ) ;
#117 = DIRECTION ( 'NONE',  ( -1.000000000000000000, 0.0000000000000000000, 0.0000000000000000000 ) ) ;
#118 = CARTESIAN_POINT ( 'NONE',  ( -251.5999999999999900, 0.0000000000000000000, 0.0000000000000000000 ) ) ;
#119 = DIRECTION ( 'NONE',  ( 0.0000000000000000000, -1.000000000000000000, 0.0000000000000000000 ) ) ;
#120 = CARTESIAN_POINT ( 'NONE',  ( 251.5999999999999900, 0.0000000000000000000, 0.0000000000000000000 ) ) ;
#121 = CARTESIAN_POINT ( 'NONE',  ( 251.5999999999999900, -14.00000000000000000, 0.0000000000000000000 ) ) ;
#122 = CARTESIAN_POINT ( 'NONE',  ( -251.5999999999999900, -14.00000000000000000, 0.0000000000000000000 ) ) ;
#123 = CARTESIAN_POINT ( 'NONE',  ( 251.5999999999999900, -14.00000000000000000, 660.0000000000000000 ) ) ;
#124 = CARTESIAN_POINT ( 'NONE',  ( -251.0000000000000000, 0.0000000000000000000, 660.0000000000000000 ) ) ;
#125 = CARTESIAN_POINT ( 'NONE',  ( 1.734723475976807100E-015, 0.0000000000000000000, 14.99999999999999300 ) ) ;
#126 = LINE ( 'NONE', #121, #276 ) ;
#127 = LINE ( 'NONE', #3, #324 ) ;
#128 = VECTOR ( 'NONE', #6, 1000.000000000000000 ) ;
#129 = VECTOR ( 'NONE', #2, 1000.000000000000000 ) ;
#130 = LINE ( 'NONE', #1, #128 ) ;
#131 = LINE ( 'NONE', #12, #320 ) ;
#132 = VECTOR ( 'NONE', #10, 1000.000000000000000 ) ;
#133 = LINE ( 'NONE', #11, #132 ) ;
#134 = APPROVAL_DATE_TIME ( #135, #55 ) ;
#135 = DATE_AND_TIME ( #136, #138 ) ;
#136 = CALENDAR_DATE ( 2012, 9, 11 ) ;
#137 = LINE ( 'NONE', #5, #129 ) ;
#138 = LOCAL_TIME ( 12, 44, 35.00000000000000000, #139 ) ;
#139 = COORDINATED_UNIVERSAL_TIME_OFFSET ( 4, 0, .AHEAD. ) ;
#140 = APPROVAL_PERSON_ORGANIZATION ( #141, #55, #342 ) ;
#141 = PERSON_AND_ORGANIZATION ( #78, #170 ) ;
#142 = VERTEX_POINT ( 'NONE', #387 ) ;
#143 = DATE_AND_TIME ( #144, #145 ) ;
#144 = CALENDAR_DATE ( 2012, 9, 11 ) ;
#145 = LOCAL_TIME ( 12, 44, 35.00000000000000000, #146 ) ;
#146 = COORDINATED_UNIVERSAL_TIME_OFFSET ( 4, 0, .AHEAD. ) ;
#147 = PERSON_AND_ORGANIZATION ( #78, #170 ) ;
#148 = PERSON_AND_ORGANIZATION ( #78, #170 ) ;
#149 = PERSON_AND_ORGANIZATION ( #78, #170 ) ;
#150 = APPROVAL_DATE_TIME ( #151, #62 ) ;
#151 = DATE_AND_TIME ( #152, #153 ) ;
#152 = CALENDAR_DATE ( 2012, 9, 11 ) ;
#153 = LOCAL_TIME ( 12, 44, 35.00000000000000000, #154 ) ;
#154 = COORDINATED_UNIVERSAL_TIME_OFFSET ( 4, 0, .AHEAD. ) ;
#155 = APPROVAL_PERSON_ORGANIZATION ( #156, #62, #352 ) ;
#156 = PERSON_AND_ORGANIZATION ( #78, #170 ) ;
#157 = DATE_AND_TIME ( #158, #159 ) ;
#158 = CALENDAR_DATE ( 2012, 9, 11 ) ;
#159 = LOCAL_TIME ( 12, 44, 35.00000000000000000, #160 ) ;
#160 = COORDINATED_UNIVERSAL_TIME_OFFSET ( 4, 0, .AHEAD. ) ;
#161 = PERSON_AND_ORGANIZATION ( #78, #170 ) ;
#162 = APPROVAL_DATE_TIME ( #163, #67 ) ;
#163 = DATE_AND_TIME ( #164, #165 ) ;
#164 = CALENDAR_DATE ( 2012, 9, 11 ) ;
#165 = LOCAL_TIME ( 12, 44, 35.00000000000000000, #166 ) ;
#166 = COORDINATED_UNIVERSAL_TIME_OFFSET ( 4, 0, .AHEAD. ) ;
#167 = APPROVAL_PERSON_ORGANIZATION ( #168, #67, #349 ) ;
#168 = PERSON_AND_ORGANIZATION ( #78, #170 ) ;
#169 = PERSON_AND_ORGANIZATION ( #78, #170 ) ;
#170 = ORGANIZATION ( 'UNSPECIFIED', 'UNSPECIFIED', '' ) ;
#171 = VERTEX_POINT ( 'NONE', #412 ) ;
#172 = VERTEX_POINT ( 'NONE', #354 ) ;
#173 = VERTEX_POINT ( 'NONE', #420 ) ;
#174 = VERTEX_POINT ( 'NONE', #410 ) ;
#175 = VERTEX_POINT ( 'NONE', #385 ) ;
#176 = VERTEX_POINT ( 'NONE', #393 ) ;
#177 = VERTEX_POINT ( 'NONE', #122 ) ;
#178 = VERTEX_POINT ( 'NONE', #394 ) ;
#179 = VERTEX_POINT ( 'NONE', #85 ) ;
#180 = VERTEX_POINT ( 'NONE', #396 ) ;
#181 = VERTEX_POINT ( 'NONE', #397 ) ;
#182 = VERTEX_POINT ( 'NONE', #398 ) ;
#183 = FACE_OUTER_BOUND ( 'NONE', #256, .T. ) ;
#184 = VERTEX_POINT ( 'NONE', #353 ) ;
#185 = VERTEX_POINT ( 'NONE', #399 ) ;
#186 = CYLINDRICAL_SURFACE ( 'NONE', #72, 2.500000000000057700 ) ;
#187 = SHAPE_DEFINITION_REPRESENTATION ( #371, #330 ) ;
#188 = VERTEX_POINT ( 'NONE', #404 ) ;
#189 = VERTEX_POINT ( 'NONE', #405 ) ;
#190 = VERTEX_POINT ( 'NONE', #406 ) ;
#191 = VERTEX_POINT ( 'NONE', #428 ) ;
#192 = FACE_OUTER_BOUND ( 'NONE', #255, .T. ) ;
#193 = ORIENTED_EDGE ( 'NONE', *, *, #30, .F. ) ;
#194 = ORIENTED_EDGE ( 'NONE', *, *, #46, .F. ) ;
#195 = ORIENTED_EDGE ( 'NONE', *, *, #30, .T. ) ;
#196 = FACE_OUTER_BOUND ( 'NONE', #259, .T. ) ;
#197 = ORIENTED_EDGE ( 'NONE', *, *, #24, .T. ) ;
#198 = ORIENTED_EDGE ( 'NONE', *, *, #34, .F. ) ;
#199 = ORIENTED_EDGE ( 'NONE', *, *, #44, .F. ) ;
#200 = ORIENTED_EDGE ( 'NONE', *, *, #40, .T. ) ;
#201 = ORIENTED_EDGE ( 'NONE', *, *, #44, .T. ) ;
#202 = CYLINDRICAL_SURFACE ( 'NONE', #73, 2.500000000000002200 ) ;
#203 = ORIENTED_EDGE ( 'NONE', *, *, #24, .F. ) ;
#204 = ORIENTED_EDGE ( 'NONE', *, *, #42, .F. ) ;
#205 = ORIENTED_EDGE ( 'NONE', *, *, #43, .F. ) ;
#206 = ORIENTED_EDGE ( 'NONE', *, *, #41, .F. ) ;
#207 = ORIENTED_EDGE ( 'NONE', *, *, #37, .T. ) ;
#208 = ORIENTED_EDGE ( 'NONE', *, *, #39, .T. ) ;
#209 = ORIENTED_EDGE ( 'NONE', *, *, #40, .F. ) ;
#210 = ORIENTED_EDGE ( 'NONE', *, *, #38, .T. ) ;
#211 = ORIENTED_EDGE ( 'NONE', *, *, #34, .T. ) ;
#212 = ORIENTED_EDGE ( 'NONE', *, *, #36, .F. ) ;
#213 = ORIENTED_EDGE ( 'NONE', *, *, #37, .F. ) ;
#214 = ORIENTED_EDGE ( 'NONE', *, *, #29, .T. ) ;
#215 = ORIENTED_EDGE ( 'NONE', *, *, #35, .T. ) ;
#216 = ORIENTED_EDGE ( 'NONE', *, *, #31, .T. ) ;
#217 = ORIENTED_EDGE ( 'NONE', *, *, #36, .T. ) ;
#218 = ORIENTED_EDGE ( 'NONE', *, *, #25, .T. ) ;
#219 = ORIENTED_EDGE ( 'NONE', *, *, #28, .F. ) ;
#220 = ORIENTED_EDGE ( 'NONE', *, *, #47, .T. ) ;
#221 = ORIENTED_EDGE ( 'NONE', *, *, #45, .F. ) ;
#222 = ORIENTED_EDGE ( 'NONE', *, *, #26, .T. ) ;
#223 = ORIENTED_EDGE ( 'NONE', *, *, #38, .F. ) ;
#224 = ORIENTED_EDGE ( 'NONE', *, *, #35, .F. ) ;
#225 = ORIENTED_EDGE ( 'NONE', *, *, #31, .F. ) ;
#226 = ORIENTED_EDGE ( 'NONE', *, *, #45, .T. ) ;
#227 = ORIENTED_EDGE ( 'NONE', *, *, #41, .T. ) ;
#228 = ORIENTED_EDGE ( 'NONE', *, *, #39, .F. ) ;
#229 = CLOSED_SHELL ( 'NONE', ( #360, #361, #359, #362, #363, #364, #365, #366, #367, #370, #368, #369 ) ) ;
#230 = ORIENTED_EDGE ( 'NONE', *, *, #33, .F. ) ;
#231 = ORIENTED_EDGE ( 'NONE', *, *, #46, .T. ) ;
#232 = ORIENTED_EDGE ( 'NONE', *, *, #43, .T. ) ;
#233 = ORIENTED_EDGE ( 'NONE', *, *, #51, .T. ) ;
#234 = ORIENTED_EDGE ( 'NONE', *, *, #48, .T. ) ;
#235 = ORIENTED_EDGE ( 'NONE', *, *, #33, .T. ) ;
#236 = ORIENTED_EDGE ( 'NONE', *, *, #25, .F. ) ;
#237 = ORIENTED_EDGE ( 'NONE', *, *, #49, .F. ) ;
#238 = ORIENTED_EDGE ( 'NONE', *, *, #48, .F. ) ;
#239 = ORIENTED_EDGE ( 'NONE', *, *, #28, .T. ) ;
#240 = ORIENTED_EDGE ( 'NONE', *, *, #26, .F. ) ;
#241 = ORIENTED_EDGE ( 'NONE', *, *, #27, .F. ) ;
#242 = ORIENTED_EDGE ( 'NONE', *, *, #32, .F. ) ;
#243 = ORIENTED_EDGE ( 'NONE', *, *, #42, .T. ) ;
#244 = ORIENTED_EDGE ( 'NONE', *, *, #32, .T. ) ;
#245 = ORIENTED_EDGE ( 'NONE', *, *, #47, .F. ) ;
#246 = ORIENTED_EDGE ( 'NONE', *, *, #50, .F. ) ;
#247 = ORIENTED_EDGE ( 'NONE', *, *, #51, .F. ) ;
#248 = ORIENTED_EDGE ( 'NONE', *, *, #29, .F. ) ;
#249 = ORIENTED_EDGE ( 'NONE', *, *, #27, .T. ) ;
#250 = ORIENTED_EDGE ( 'NONE', *, *, #50, .T. ) ;
#251 = ORIENTED_EDGE ( 'NONE', *, *, #49, .T. ) ;
#252 = EDGE_LOOP ( 'NONE', ( #238, #246, #249, #231 ) ) ;
#253 = EDGE_LOOP ( 'NONE', ( #248, #194, #251, #220 ) ) ;
#254 = EDGE_LOOP ( 'NONE', ( #208, #209, #206, #207 ) ) ;
#255 = EDGE_LOOP ( 'NONE', ( #243 ) ) ;
#256 = EDGE_LOOP ( 'NONE', ( #232 ) ) ;
#257 = EDGE_LOOP ( 'NONE', ( #218 ) ) ;
#258 = EDGE_LOOP ( 'NONE', ( #201, #203, #221, #200 ) ) ;
#259 = EDGE_LOOP ( 'NONE', ( #219, #199, #228, #217, #235, #195, #234, #214 ) ) ;
#260 = EDGE_LOOP ( 'NONE', ( #204 ) ) ;
#261 = VERTEX_POINT ( 'NONE', #434 ) ;
#262 = EDGE_LOOP ( 'NONE', ( #205 ) ) ;
#263 = EDGE_LOOP ( 'NONE', ( #239, #245, #240, #197 ) ) ;
#264 = CIRCLE ( 'NONE', #23, 2.500000000000002200 ) ;
#265 = EDGE_LOOP ( 'NONE', ( #236 ) ) ;
#266 = EDGE_LOOP ( 'NONE', ( #212, #213, #210, #211 ) ) ;
#267 = EDGE_LOOP ( 'NONE', ( #230, #198, #215, #216 ) ) ;
#268 = EDGE_LOOP ( 'NONE', ( #247 ) ) ;
#269 = EDGE_LOOP ( 'NONE', ( #222, #237, #241, #242, #224, #223, #227, #226 ) ) ;
#270 = EDGE_LOOP ( 'NONE', ( #193, #225, #244, #250 ) ) ;
#271 = FACE_OUTER_BOUND ( 'NONE', #272, .T. ) ;
#272 = EDGE_LOOP ( 'NONE', ( #233 ) ) ;
#273 = LINE ( 'NONE', #8, #319 ) ;
#274 = FACE_BOUND ( 'NONE', #262, .T. ) ;
#275 = FACE_OUTER_BOUND ( 'NONE', #269, .T. ) ;
#276 = VECTOR ( 'NONE', #117, 1000.000000000000000 ) ;
#277 = FACE_BOUND ( 'NONE', #265, .T. ) ;
#278 = FACE_BOUND ( 'NONE', #268, .T. ) ;
#279 = VECTOR ( 'NONE', #81, 1000.000000000000000 ) ;
#280 = LINE ( 'NONE', #80, #287 ) ;
#281 = VECTOR ( 'NONE', #83, 1000.000000000000000 ) ;
#282 = LINE ( 'NONE', #82, #279 ) ;
#283 = VECTOR ( 'NONE', #84, 1000.000000000000000 ) ;
#284 = FACE_OUTER_BOUND ( 'NONE', #267, .T. ) ;
#285 = FACE_OUTER_BOUND ( 'NONE', #257, .T. ) ;
#286 = FACE_OUTER_BOUND ( 'NONE', #253, .T. ) ;
#287 = VECTOR ( 'NONE', #79, 1000.000000000000000 ) ;
#288 = CIRCLE ( 'NONE', #19, 2.500000000000057700 ) ;
#289 = FACE_OUTER_BOUND ( 'NONE', #252, .T. ) ;
#290 = FACE_OUTER_BOUND ( 'NONE', #254, .T. ) ;
#291 = FACE_OUTER_BOUND ( 'NONE', #263, .T. ) ;
#292 = FACE_OUTER_BOUND ( 'NONE', #266, .T. ) ;
#293 = VECTOR ( 'NONE', #87, 1000.000000000000000 ) ;
#294 = LINE ( 'NONE', #86, #283 ) ;
#295 = LINE ( 'NONE', #124, #297 ) ;
#296 = CIRCLE ( 'NONE', #21, 2.500000000000002200 ) ;
#297 = VECTOR ( 'NONE', #108, 1000.000000000000000 ) ;
#298 = VECTOR ( 'NONE', #88, 1000.000000000000000 ) ;
#299 = LINE ( 'NONE', #123, #293 ) ;
#300 = LINE ( 'NONE', #120, #281 ) ;
#301 = VECTOR ( 'NONE', #92, 1000.000000000000000 ) ;
#302 = CIRCLE ( 'NONE', #22, 2.500000000000057700 ) ;
#303 = VECTOR ( 'NONE', #91, 1000.000000000000000 ) ;
#304 = LINE ( 'NONE', #93, #298 ) ;
#305 = VECTOR ( 'NONE', #101, 1000.000000000000000 ) ;
#306 = LINE ( 'NONE', #98, #309 ) ;
#307 = VECTOR ( 'NONE', #99, 1000.000000000000000 ) ;
#308 = LINE ( 'NONE', #94, #301 ) ;
#309 = VECTOR ( 'NONE', #95, 1000.000000000000000 ) ;
#310 = LINE ( 'NONE', #104, #313 ) ;
#311 = VECTOR ( 'NONE', #105, 1000.000000000000000 ) ;
#312 = LINE ( 'NONE', #102, #305 ) ;
#313 = VECTOR ( 'NONE', #103, 1000.000000000000000 ) ;
#314 = LINE ( 'NONE', #107, #303 ) ;
#315 = VECTOR ( 'NONE', #106, 1000.000000000000000 ) ;
#316 = LINE ( 'NONE', #111, #307 ) ;
#317 = VECTOR ( 'NONE', #110, 1000.000000000000000 ) ;
#318 = LINE ( 'NONE', #109, #315 ) ;
#319 = VECTOR ( 'NONE', #112, 1000.000000000000000 ) ;
#320 = VECTOR ( 'NONE', #119, 1000.000000000000000 ) ;
#321 = LINE ( 'NONE', #114, #311 ) ;
#322 = VECTOR ( 'NONE', #113, 1000.000000000000000 ) ;
#323 = LINE ( 'NONE', #118, #317 ) ;
#324 = VECTOR ( 'NONE', #116, 1000.000000000000000 ) ;
#325 = LINE ( 'NONE', #115, #322 ) ;
#326 = FACE_OUTER_BOUND ( 'NONE', #270, .T. ) ;
#327 = FACE_BOUND ( 'NONE', #260, .T. ) ;
#328 = FACE_OUTER_BOUND ( 'NONE', #258, .T. ) ;
#329 = UNCERTAINTY_MEASURE_WITH_UNIT (LENGTH_MEASURE( 1.000000000000000100E-005 ), #343, 'distance_accuracy_value', 'NONE');
#330 = ADVANCED_BREP_SHAPE_REPRESENTATION ( '¦¨v°úð ýð þªòõªòøªõû¹ T-þñ¨ð÷ývù òõ¨ªøúðû¹ývù TDSR_38414', ( #331, #70 ), #74 ) ;
#331 = MANIFOLD_SOLID_BREP ( 'Âûðåç-Âûòÿíóòü1', #229 ) ;
#332 = APPROVAL_STATUS ( 'not_yet_approved' ) ;
#333 = DATE_TIME_ROLE ( 'classification_date' ) ;
#334 = PERSON_AND_ORGANIZATION_ROLE ( 'classification_officer' ) ;
#335 = SECURITY_CLASSIFICATION_LEVEL ( 'unclassified' ) ;
#336 = APPLICATION_CONTEXT ( 'configuration controlled 3d designs of mechanical parts and assemblies' ) ;
#337 = APPLICATION_PROTOCOL_DEFINITION ( 'international standard', 'config_control_design', 1994, #336 ) ;
#338 = DATE_TIME_ROLE ( 'creation_date' ) ;
#339 = DIRECTION ( 'NONE',  ( 1.000000000000000000, 0.0000000000000000000, 0.0000000000000000000 ) ) ;
#340 = MECHANICAL_CONTEXT ( 'NONE', #347, 'mechanical' ) ;
#341 = PERSON_AND_ORGANIZATION_ROLE ( 'design_owner' ) ;
#342 = APPROVAL_ROLE ( '' ) ;
#343 =( LENGTH_UNIT ( ) NAMED_UNIT ( * ) SI_UNIT ( .MILLI., .METRE. ) );
#344 =( NAMED_UNIT ( * ) PLANE_ANGLE_UNIT ( ) SI_UNIT ( $, .RADIAN. ) );
#345 =( NAMED_UNIT ( * ) SI_UNIT ( $, .STERADIAN. ) SOLID_ANGLE_UNIT ( ) );
#346 = APPLICATION_PROTOCOL_DEFINITION ( 'international standard', 'config_control_design', 1994, #347 ) ;
#347 = APPLICATION_CONTEXT ( 'configuration controlled 3d designs of mechanical parts and assemblies' ) ;
#348 = APPROVAL_STATUS ( 'not_yet_approved' ) ;
#349 = APPROVAL_ROLE ( '' ) ;
#350 = PERSON_AND_ORGANIZATION_ROLE ( 'creator' ) ;
#351 = PERSON_AND_ORGANIZATION_ROLE ( 'creator' ) ;
#352 = APPROVAL_ROLE ( '' ) ;
#353 = CARTESIAN_POINT ( 'NONE',  ( 1.734723475976807100E-015, 0.5999999999999999800, 17.49999999999999600 ) ) ;
#354 = CARTESIAN_POINT ( 'NONE',  ( 1.734723475976807100E-015, 0.0000000000000000000, 17.49999999999999600 ) ) ;
#355 = PERSON_AND_ORGANIZATION_ROLE ( 'design_supplier' ) ;
#356 = DIRECTION ( 'NONE',  ( 0.0000000000000000000, 0.0000000000000000000, 1.000000000000000000 ) ) ;
#357 = CARTESIAN_POINT ( 'NONE',  ( 0.0000000000000000000, 0.0000000000000000000, 0.0000000000000000000 ) ) ;
#358 = APPROVAL_STATUS ( 'not_yet_approved' ) ;
#359 = ADVANCED_FACE ( 'NONE', ( #289 ), #435, .T. ) ;
#360 = ADVANCED_FACE ( 'NONE', ( #291 ), #378, .F. ) ;
#361 = ADVANCED_FACE ( 'NONE', ( #286 ), #433, .T. ) ;
#362 = ADVANCED_FACE ( 'NONE', ( #278, #277, #326 ), #424, .T. ) ;
#363 = ADVANCED_FACE ( 'NONE', ( #284 ), #421, .T. ) ;
#364 = ADVANCED_FACE ( 'NONE', ( #292 ), #414, .T. ) ;
#365 = ADVANCED_FACE ( 'NONE', ( #290 ), #407, .F. ) ;
#366 = ADVANCED_FACE ( 'NONE', ( #327, #274, #328 ), #395, .F. ) ;
#367 = ADVANCED_FACE ( 'NONE', ( #275 ), #386, .F. ) ;
#368 = ADVANCED_FACE ( 'NONE', ( #285, #183 ), #202, .F. ) ;
#369 = ADVANCED_FACE ( 'NONE', ( #271, #192 ), #186, .F. ) ;
#370 = ADVANCED_FACE ( 'NONE', ( #196 ), #411, .T. ) ;
#371 = PRODUCT_DEFINITION_SHAPE ( 'NONE', 'NONE',  #68 ) ;
#372 = DESIGN_CONTEXT ( 'detailed design', #336, 'design' ) ;
#373 = CARTESIAN_POINT ( 'NONE',  ( 0.0000000000000000000, 0.0000000000000000000, 0.0000000000000000000 ) ) ;
#374 = DIRECTION ( 'NONE',  ( -0.0000000000000000000, 1.000000000000000000, -0.0000000000000000000 ) ) ;
#375 = DIRECTION ( 'NONE',  ( -0.0000000000000000000, 0.0000000000000000000, -1.000000000000000000 ) ) ;
#376 = DIRECTION ( 'NONE',  ( 1.000000000000000000, 0.0000000000000000000, -0.0000000000000000000 ) ) ;
#377 = CARTESIAN_POINT ( 'NONE',  ( 0.0000000000000000000, -14.00099999999999900, 645.0000000000001100 ) ) ;
#378 = PLANE ( 'NONE',  #17 ) ;
#379 = DIRECTION ( 'NONE',  ( 0.0000000000000000000, 0.0000000000000000000, 1.000000000000000000 ) ) ;
#380 = DIRECTION ( 'NONE',  ( 1.000000000000000000, 0.0000000000000000000, -0.0000000000000000000 ) ) ;
#381 = CARTESIAN_POINT ( 'NONE',  ( 1.734723475976807100E-015, -14.00099999999999900, 14.99999999999999300 ) ) ;
#382 = DIRECTION ( 'NONE',  ( -1.000000000000000000, 0.0000000000000000000, 0.0000000000000000000 ) ) ;
#383 = DIRECTION ( 'NONE',  ( -0.0000000000000000000, 0.0000000000000000000, -1.000000000000000000 ) ) ;
#384 = DIRECTION ( 'NONE',  ( -0.0000000000000000000, 1.000000000000000000, -0.0000000000000000000 ) ) ;
#385 = CARTESIAN_POINT ( 'NONE',  ( 251.0000000000000000, -14.00000000000000000, 0.0000000000000000000 ) ) ;
#386 = PLANE ( 'NONE',  #75 ) ;
#387 = CARTESIAN_POINT ( 'NONE',  ( 251.0000000000000000, 0.0000000000000000000, 0.0000000000000000000 ) ) ;
#388 = DIRECTION ( 'NONE',  ( -0.0000000000000000000, 1.000000000000000000, -0.0000000000000000000 ) ) ;
#389 = DIRECTION ( 'NONE',  ( 0.0000000000000000000, 0.0000000000000000000, -1.000000000000000000 ) ) ;
#390 = DIRECTION ( 'NONE',  ( 0.0000000000000000000, -0.0000000000000000000, 1.000000000000000000 ) ) ;
#391 = CARTESIAN_POINT ( 'NONE',  ( 0.0000000000000000000, 0.0000000000000000000, 660.0000000000000000 ) ) ;
#392 = CARTESIAN_POINT ( 'NONE',  ( 251.5999999999999900, 0.0000000000000000000, 660.0000000000000000 ) ) ;
#393 = CARTESIAN_POINT ( 'NONE',  ( 251.5999999999999900, 0.5999999999999999800, 0.0000000000000000000 ) ) ;
#394 = CARTESIAN_POINT ( 'NONE',  ( 251.0000000000000000, -14.00000000000000000, 660.0000000000000000 ) ) ;
#395 = PLANE ( 'NONE',  #76 ) ;
#396 = CARTESIAN_POINT ( 'NONE',  ( 251.5999999999999900, 0.5999999999999999800, 660.0000000000000000 ) ) ;
#397 = CARTESIAN_POINT ( 'NONE',  ( -251.0000000000000000, -14.00000000000000000, 0.0000000000000000000 ) ) ;
#398 = CARTESIAN_POINT ( 'NONE',  ( -251.0000000000000000, 0.0000000000000000000, 0.0000000000000000000 ) ) ;
#399 = CARTESIAN_POINT ( 'NONE',  ( -251.5999999999999900, 0.5999999999999999800, 660.0000000000000000 ) ) ;
#400 = DIRECTION ( 'NONE',  ( 0.0000000000000000000, 0.0000000000000000000, 1.000000000000000000 ) ) ;
#401 = CARTESIAN_POINT ( 'NONE',  ( -251.0000000000000000, 0.0000000000000000000, 660.0000000000000000 ) ) ;
#402 = DIRECTION ( 'NONE',  ( 0.0000000000000000000, 0.0000000000000000000, 1.000000000000000000 ) ) ;
#403 = DIRECTION ( 'NONE',  ( -1.000000000000000000, 0.0000000000000000000, 0.0000000000000000000 ) ) ;
#404 = CARTESIAN_POINT ( 'NONE',  ( 251.0000000000000000, 0.0000000000000000000, 660.0000000000000000 ) ) ;
#405 = CARTESIAN_POINT ( 'NONE',  ( -251.5999999999999900, -14.00000000000000000, 660.0000000000000000 ) ) ;
#406 = CARTESIAN_POINT ( 'NONE',  ( 251.5999999999999900, -14.00000000000000000, 0.0000000000000000000 ) ) ;
#407 = PLANE ( 'NONE',  #20 ) ;
#408 = DIRECTION ( 'NONE',  ( 0.0000000000000000000, -0.0000000000000000000, -1.000000000000000000 ) ) ;
#409 = DIRECTION ( 'NONE',  ( 0.0000000000000000000, -1.000000000000000000, 0.0000000000000000000 ) ) ;
#410 = CARTESIAN_POINT ( 'NONE',  ( 251.5999999999999900, -14.00000000000000000, 660.0000000000000000 ) ) ;
#411 = PLANE ( 'NONE',  #71 ) ;
#412 = CARTESIAN_POINT ( 'NONE',  ( 0.0000000000000000000, 0.5999999999999999800, 642.5000000000001100 ) ) ;
#413 = DIRECTION ( 'NONE',  ( 0.0000000000000000000, 1.000000000000000000, 0.0000000000000000000 ) ) ;
#414 = PLANE ( 'NONE',  #13 ) ;
#415 = DIRECTION ( 'NONE',  ( -0.0000000000000000000, 0.0000000000000000000, -1.000000000000000000 ) ) ;
#416 = DIRECTION ( 'NONE',  ( 0.0000000000000000000, 0.0000000000000000000, 1.000000000000000000 ) ) ;
#417 = DIRECTION ( 'NONE',  ( -1.000000000000000000, 0.0000000000000000000, 0.0000000000000000000 ) ) ;
#418 = DIRECTION ( 'NONE',  ( -1.000000000000000000, 0.0000000000000000000, 0.0000000000000000000 ) ) ;
#419 = CARTESIAN_POINT ( 'NONE',  ( -251.0000000000000000, 0.0000000000000000000, 660.0000000000000000 ) ) ;
#420 = CARTESIAN_POINT ( 'NONE',  ( 0.0000000000000000000, 0.0000000000000000000, 647.5000000000002300 ) ) ;
#421 = PLANE ( 'NONE',  #14 ) ;
#422 = DIRECTION ( 'NONE',  ( 0.0000000000000000000, -0.0000000000000000000, 1.000000000000000000 ) ) ;
#423 = CARTESIAN_POINT ( 'NONE',  ( -251.5999999999999900, 0.0000000000000000000, 660.0000000000000000 ) ) ;
#424 = PLANE ( 'NONE',  #15 ) ;
#425 = CARTESIAN_POINT ( 'NONE',  ( -251.0000000000000000, -14.00000000000000000, 660.0000000000000000 ) ) ;
#426 = CARTESIAN_POINT ( 'NONE',  ( 251.0000000000000000, 0.0000000000000000000, 660.0000000000000000 ) ) ;
#427 = CARTESIAN_POINT ( 'NONE',  ( -251.0000000000000000, 0.5999999999999999800, 660.0000000000000000 ) ) ;
#428 = CARTESIAN_POINT ( 'NONE',  ( -251.0000000000000000, -14.00000000000000000, 660.0000000000000000 ) ) ;
#429 = DIRECTION ( 'NONE',  ( 0.0000000000000000000, 1.000000000000000000, 0.0000000000000000000 ) ) ;
#430 = DIRECTION ( 'NONE',  ( 0.0000000000000000000, -0.0000000000000000000, -1.000000000000000000 ) ) ;
#431 = DIRECTION ( 'NONE',  ( 0.0000000000000000000, -1.000000000000000000, 0.0000000000000000000 ) ) ;
#432 = CARTESIAN_POINT ( 'NONE',  ( 251.5999999999999900, -14.00000000000000000, 660.0000000000000000 ) ) ;
#433 = PLANE ( 'NONE',  #16 ) ;
#434 = CARTESIAN_POINT ( 'NONE',  ( -251.0000000000000000, 0.0000000000000000000, 660.0000000000000000 ) ) ;
#435 = PLANE ( 'NONE',  #18 ) ;
#436 = DIRECTION ( 'NONE',  ( -0.0000000000000000000, 0.0000000000000000000, -1.000000000000000000 ) ) ;
#437 = CARTESIAN_POINT ( 'NONE',  ( 0.0000000000000000000, 0.5999999999999999800, 645.0000000000001100 ) ) ;
ENDSEC;
END-ISO-10303-21;
