ISO-10303-21;
HEADER;
FILE_DESCRIPTION (( 'STEP AP203' ),
    '1' );
FILE_NAME ('Êðûøêà íà îòâåòâèòåëü Ò-îáðàçíûé âåðòèêàëüíûé TDSA_38395.STEP',
    '2012-11-09T08:44:23',
    ( 'Àñååâ' ),
    ( '' ),
    'SwSTEP 2.0',
    'SolidWorks 2012',
    '' );
FILE_SCHEMA (( 'CONFIG_CONTROL_DESIGN' ));
ENDSEC;

DATA;
#1 = DIRECTION ( 'NONE',  ( 1.000000000000000000, 0.0000000000000000000, 0.0000000000000000000 ) ) ;
#2 = CARTESIAN_POINT ( 'NONE',  ( 101.6000000000000100, -14.00000000000000000, 0.0000000000000000000 ) ) ;
#3 = DIRECTION ( 'NONE',  ( 0.0000000000000000000, 0.0000000000000000000, 1.000000000000000000 ) ) ;
#4 = DIRECTION ( 'NONE',  ( -0.0000000000000000000, -1.000000000000000000, -0.0000000000000000000 ) ) ;
#5 = CARTESIAN_POINT ( 'NONE',  ( 1.734723475976807100E-015, 0.0000000000000000000, 14.99999999999999300 ) ) ;
#6 = DIRECTION ( 'NONE',  ( 1.000000000000000000, 0.0000000000000000000, 0.0000000000000000000 ) ) ;
#7 = DIRECTION ( 'NONE',  ( 0.0000000000000000000, 0.0000000000000000000, 1.000000000000000000 ) ) ;
#8 = DIRECTION ( 'NONE',  ( -0.0000000000000000000, -1.000000000000000000, -0.0000000000000000000 ) ) ;
#9 = CARTESIAN_POINT ( 'NONE',  ( 0.0000000000000000000, 0.0000000000000000000, 645.0000000000000000 ) ) ;
#10 = CARTESIAN_POINT ( 'NONE',  ( 101.6000000000000100, -14.00000000000000000, 660.0000000000000000 ) ) ;
#11 = DIRECTION ( 'NONE',  ( -0.0000000000000000000, 1.000000000000000000, -0.0000000000000000000 ) ) ;
#12 = CARTESIAN_POINT ( 'NONE',  ( -101.0000000000000000, 0.0000000000000000000, 0.0000000000000000000 ) ) ;
#13 = DIRECTION ( 'NONE',  ( -1.000000000000000000, 0.0000000000000000000, 0.0000000000000000000 ) ) ;
#14 = DIRECTION ( 'NONE',  ( -0.0000000000000000000, -0.0000000000000000000, -1.000000000000000000 ) ) ;
#15 = CARTESIAN_POINT ( 'NONE',  ( -101.0000000000000000, -14.00000000000000000, 660.0000000000000000 ) ) ;
#16 = DIRECTION ( 'NONE',  ( -1.000000000000000000, 0.0000000000000000000, 0.0000000000000000000 ) ) ;
#17 = CARTESIAN_POINT ( 'NONE',  ( -101.0000000000000000, -14.00000000000000000, 0.0000000000000000000 ) ) ;
#18 = DIRECTION ( 'NONE',  ( 0.0000000000000000000, 1.000000000000000000, 0.0000000000000000000 ) ) ;
#19 = CARTESIAN_POINT ( 'NONE',  ( 101.6000000000000100, -14.00000000000000000, 660.0000000000000000 ) ) ;
#20 = DIRECTION ( 'NONE',  ( -0.0000000000000000000, -0.0000000000000000000, -1.000000000000000000 ) ) ;
#21 = CARTESIAN_POINT ( 'NONE',  ( 101.0000000000000000, 0.0000000000000000000, 660.0000000000000000 ) ) ;
#22 = DIRECTION ( 'NONE',  ( -0.0000000000000000000, -1.000000000000000000, 0.0000000000000000000 ) ) ;
#23 = DIRECTION ( 'NONE',  ( -0.0000000000000000000, 1.000000000000000000, -0.0000000000000000000 ) ) ;
#24 = CARTESIAN_POINT ( 'NONE',  ( 101.6000000000000100, 0.0000000000000000000, 660.0000000000000000 ) ) ;
#25 = CARTESIAN_POINT ( 'NONE',  ( -101.0000000000000000, 0.0000000000000000000, 660.0000000000000000 ) ) ;
#26 = DIRECTION ( 'NONE',  ( -0.0000000000000000000, -0.0000000000000000000, -1.000000000000000000 ) ) ;
#27 = DIRECTION ( 'NONE',  ( 0.0000000000000000000, -1.000000000000000000, 0.0000000000000000000 ) ) ;
#28 = DIRECTION ( 'NONE',  ( -0.0000000000000000000, -0.0000000000000000000, -1.000000000000000000 ) ) ;
#29 = CARTESIAN_POINT ( 'NONE',  ( -101.0000000000000000, 0.0000000000000000000, 660.0000000000000000 ) ) ;
#30 = CARTESIAN_POINT ( 'NONE',  ( -101.0000000000000000, 0.0000000000000000000, 0.0000000000000000000 ) ) ;
#31 = DIRECTION ( 'NONE',  ( -0.0000000000000000000, 1.000000000000000000, -0.0000000000000000000 ) ) ;
#32 = CARTESIAN_POINT ( 'NONE',  ( -101.0000000000000000, 0.0000000000000000000, 660.0000000000000000 ) ) ;
#33 = DIRECTION ( 'NONE',  ( -0.0000000000000000000, -0.0000000000000000000, -1.000000000000000000 ) ) ;
#34 = CARTESIAN_POINT ( 'NONE',  ( 0.0000000000000000000, 0.5999999999999999800, 645.0000000000000000 ) ) ;
#35 = CARTESIAN_POINT ( 'NONE',  ( -101.6000000000000100, 0.0000000000000000000, 660.0000000000000000 ) ) ;
#36 = CARTESIAN_POINT ( 'NONE',  ( -101.6000000000000100, 0.5999999999999999800, 660.0000000000000000 ) ) ;
#37 = DIRECTION ( 'NONE',  ( 0.0000000000000000000, 1.000000000000000000, 0.0000000000000000000 ) ) ;
#38 = CARTESIAN_POINT ( 'NONE',  ( 1.734723475976807100E-015, 0.5999999999999999800, 14.99999999999999300 ) ) ;
#39 = DIRECTION ( 'NONE',  ( 0.0000000000000000000, 0.0000000000000000000, -1.000000000000000000 ) ) ;
#40 = DIRECTION ( 'NONE',  ( -0.0000000000000000000, 1.000000000000000000, -0.0000000000000000000 ) ) ;
#41 = CARTESIAN_POINT ( 'NONE',  ( -101.0000000000000000, 0.5999999999999999800, 660.0000000000000000 ) ) ;
#42 = DIRECTION ( 'NONE',  ( 1.000000000000000000, 0.0000000000000000000, 0.0000000000000000000 ) ) ;
#43 = DIRECTION ( 'NONE',  ( 0.0000000000000000000, 0.0000000000000000000, 1.000000000000000000 ) ) ;
#44 = CARTESIAN_POINT ( 'NONE',  ( -101.6000000000000100, 0.0000000000000000000, 0.0000000000000000000 ) ) ;
#45 = CARTESIAN_POINT ( 'NONE',  ( -101.6000000000000100, -14.00000000000000000, 660.0000000000000000 ) ) ;
#46 = DIRECTION ( 'NONE',  ( 0.0000000000000000000, 1.000000000000000000, 0.0000000000000000000 ) ) ;
#47 = CARTESIAN_POINT ( 'NONE',  ( 101.6000000000000100, 0.5999999999999999800, 660.0000000000000000 ) ) ;
#48 = CARTESIAN_POINT ( 'NONE',  ( 101.6000000000000100, 0.0000000000000000000, 0.0000000000000000000 ) ) ;
#49 = DIRECTION ( 'NONE',  ( -0.0000000000000000000, -1.000000000000000000, 0.0000000000000000000 ) ) ;
#50 = CARTESIAN_POINT ( 'NONE',  ( 101.0000000000000000, 0.0000000000000000000, 0.0000000000000000000 ) ) ;
#51 = DIRECTION ( 'NONE',  ( -0.0000000000000000000, -0.0000000000000000000, -1.000000000000000000 ) ) ;
#52 = DIRECTION ( 'NONE',  ( -0.0000000000000000000, -0.0000000000000000000, -1.000000000000000000 ) ) ;
#53 = CARTESIAN_POINT ( 'NONE',  ( 101.0000000000000000, -14.00000000000000000, 660.0000000000000000 ) ) ;
#54 = DIRECTION ( 'NONE',  ( 0.0000000000000000000, -1.000000000000000000, 0.0000000000000000000 ) ) ;
#55 = CARTESIAN_POINT ( 'NONE',  ( 0.0000000000000000000, -14.00099999999999900, 645.0000000000000000 ) ) ;
#56 = CARTESIAN_POINT ( 'NONE',  ( -101.0000000000000000, 0.5999999999999999800, 0.0000000000000000000 ) ) ;
#57 = CARTESIAN_POINT ( 'NONE',  ( -101.0000000000000000, -14.00000000000000000, 660.0000000000000000 ) ) ;
#58 = DIRECTION ( 'NONE',  ( -0.0000000000000000000, -0.0000000000000000000, -1.000000000000000000 ) ) ;
#59 = DIRECTION ( 'NONE',  ( 1.000000000000000000, 0.0000000000000000000, 0.0000000000000000000 ) ) ;
#60 = CARTESIAN_POINT ( 'NONE',  ( 101.0000000000000000, 0.0000000000000000000, 660.0000000000000000 ) ) ;
#61 = DIRECTION ( 'NONE',  ( -1.000000000000000000, 0.0000000000000000000, 0.0000000000000000000 ) ) ;
#62 = PRODUCT_RELATED_PRODUCT_CATEGORY ( 'detail', '', ( #127 ) ) ;
#63 = CC_DESIGN_SECURITY_CLASSIFICATION ( #68, ( #73 ) ) ;
#64 = CC_DESIGN_APPROVAL ( #65, ( #68 ) ) ;
#65 = APPROVAL ( #355, 'UNSPECIFIED' ) ;
#66 = CC_DESIGN_DATE_AND_TIME_ASSIGNMENT ( #150, #358, ( #68 ) ) ;
#67 = CC_DESIGN_PERSON_AND_ORGANIZATION_ASSIGNMENT ( #154, #359, ( #68 ) ) ;
#68 = SECURITY_CLASSIFICATION ( '', '', #360 ) ;
#69 = CC_DESIGN_PERSON_AND_ORGANIZATION_ASSIGNMENT ( #155, #361, ( #73 ) ) ;
#70 = CC_DESIGN_PERSON_AND_ORGANIZATION_ASSIGNMENT ( #156, #362, ( #73 ) ) ;
#71 = CC_DESIGN_APPROVAL ( #72, ( #73 ) ) ;
#72 = APPROVAL ( #365, 'UNSPECIFIED' ) ;
#73 = PRODUCT_DEFINITION_FORMATION_WITH_SPECIFIED_SOURCE ( 'ANY', '', #127, .NOT_KNOWN. ) ;
#74 = CC_DESIGN_DATE_AND_TIME_ASSIGNMENT ( #164, #366, ( #78 ) ) ;
#75 = CC_DESIGN_PERSON_AND_ORGANIZATION_ASSIGNMENT ( #168, #368, ( #78 ) ) ;
#76 = CC_DESIGN_APPROVAL ( #77, ( #78 ) ) ;
#77 = APPROVAL ( #370, 'UNSPECIFIED' ) ;
#78 = PRODUCT_DEFINITION ( 'UNKNOWN', '', #73, #347 ) ;
#79 = CC_DESIGN_PERSON_AND_ORGANIZATION_ASSIGNMENT ( #176, #376, ( #127 ) ) ;
#80 = AXIS2_PLACEMENT_3D ( 'NONE', #401, #395, #381 ) ;
#81 = AXIS2_PLACEMENT_3D ( 'NONE', #352, #357, #400 ) ;
#82 =( GEOMETRIC_REPRESENTATION_CONTEXT ( 3 ) GLOBAL_UNCERTAINTY_ASSIGNED_CONTEXT ( ( #128 ) ) GLOBAL_UNIT_ASSIGNED_CONTEXT ( ( #393, #391, #389 ) ) REPRESENTATION_CONTEXT ( 'NONE', 'WORKASPACE' ) );
#83 = AXIS2_PLACEMENT_3D ( 'NONE', #377, #356, #353 ) ;
#84 = AXIS2_PLACEMENT_3D ( 'NONE', #372, #425, #426 ) ;
#85 = AXIS2_PLACEMENT_3D ( 'NONE', #378, #394, #371 ) ;
#86 = AXIS2_PLACEMENT_3D ( 'NONE', #405, #382, #380 ) ;
#87 = AXIS2_PLACEMENT_3D ( 'NONE', #412, #390, #388 ) ;
#88 = AXIS2_PLACEMENT_3D ( 'NONE', #414, #432, #408 ) ;
#89 = AXIS2_PLACEMENT_3D ( 'NONE', #436, #418, #415 ) ;
#90 = AXIS2_PLACEMENT_3D ( 'NONE', #437, #430, #429 ) ;
#91 = AXIS2_PLACEMENT_3D ( 'NONE', #392, #435, #434 ) ;
#92 = AXIS2_PLACEMENT_3D ( 'NONE', #55, #23, #406 ) ;
#93 = AXIS2_PLACEMENT_3D ( 'NONE', #5, #4, #3 ) ;
#94 = AXIS2_PLACEMENT_3D ( 'NONE', #9, #8, #7 ) ;
#95 = AXIS2_PLACEMENT_3D ( 'NONE', #38, #37, #43 ) ;
#96 = AXIS2_PLACEMENT_3D ( 'NONE', #34, #40, #39 ) ;
#97 = EDGE_CURVE ( 'NONE', #319, #311, #252, .T. ) ;
#98 = EDGE_CURVE ( 'NONE', #314, #320, #340, .T. ) ;
#99 = EDGE_CURVE ( 'NONE', #324, #314, #334, .T. ) ;
#100 = EDGE_CURVE ( 'NONE', #183, #183, #250, .T. ) ;
#101 = AXIS2_PLACEMENT_3D ( 'NONE', #409, #404, #384 ) ;
#102 = EDGE_CURVE ( 'NONE', #178, #178, #244, .T. ) ;
#103 = EDGE_CURVE ( 'NONE', #317, #314, #246, .T. ) ;
#104 = EDGE_CURVE ( 'NONE', #322, #317, #245, .T. ) ;
#105 = EDGE_CURVE ( 'NONE', #322, #324, #248, .T. ) ;
#106 = EDGE_CURVE ( 'NONE', #316, #317, #240, .T. ) ;
#107 = EDGE_CURVE ( 'NONE', #325, #316, #238, .T. ) ;
#108 = EDGE_CURVE ( 'NONE', #325, #322, #241, .T. ) ;
#109 = EDGE_CURVE ( 'NONE', #323, #316, #234, .T. ) ;
#110 = EDGE_CURVE ( 'NONE', #315, #323, #232, .T. ) ;
#111 = EDGE_CURVE ( 'NONE', #315, #325, #236, .T. ) ;
#112 = EDGE_CURVE ( 'NONE', #323, #318, #228, .T. ) ;
#113 = EDGE_CURVE ( 'NONE', #310, #318, #226, .T. ) ;
#114 = EDGE_CURVE ( 'NONE', #315, #310, #230, .T. ) ;
#115 = EDGE_CURVE ( 'NONE', #179, #179, #224, .T. ) ;
#116 = EDGE_CURVE ( 'NONE', #184, #184, #218, .T. ) ;
#117 = EDGE_CURVE ( 'NONE', #318, #319, #220, .T. ) ;
#118 = EDGE_CURVE ( 'NONE', #310, #321, #219, .T. ) ;
#119 = EDGE_CURVE ( 'NONE', #321, #319, #215, .T. ) ;
#120 = EDGE_CURVE ( 'NONE', #324, #312, #214, .T. ) ;
#121 = EDGE_CURVE ( 'NONE', #320, #311, #222, .T. ) ;
#122 = EDGE_CURVE ( 'NONE', #321, #313, #210, .T. ) ;
#123 = EDGE_CURVE ( 'NONE', #313, #311, #208, .T. ) ;
#124 = EDGE_CURVE ( 'NONE', #312, #320, #212, .T. ) ;
#125 = EDGE_CURVE ( 'NONE', #312, #313, #204, .T. ) ;
#126 = PERSON ( 'UNSPECIFIED', 'UNSPECIFIED', 'UNSPECIFIED', ('UNSPECIFIED'), ('UNSPECIFIED'), ('UNSPECIFIED') ) ;
#127 = PRODUCT ( 'Êðûøêà íà îòâåòâèòåëü Ò-îáðàçíûé âåðòèêàëüíûé TDSA_38395', 'Êðûøêà íà îòâåòâèòåëü Ò-îáðàçíûé âåðòèêàëüíûé TDSA_38395', '', ( #379 ) ) ;
#128 = UNCERTAINTY_MEASURE_WITH_UNIT (LENGTH_MEASURE( 1.000000000000000100E-005 ), #393, 'distance_accuracy_value', 'NONE');
#129 = MANIFOLD_SOLID_BREP ( 'Âûðåç-Âûòÿíóòü1', #309 ) ;
#130 = ADVANCED_BREP_SHAPE_REPRESENTATION ( '¦¨v°úð ýð þªòõªòøªõû¹ T-þñ¨ð÷ývù òõ¨ªøúðû¹ývù TDSA_38395', ( #129, #80 ), #82 ) ;
#131 = ADVANCED_FACE ( 'NONE', ( #206, #202 ), #196, .F. ) ;
#132 = ADVANCED_FACE ( 'NONE', ( #199 ), #363, .F. ) ;
#133 = ADVANCED_FACE ( 'NONE', ( #198 ), #433, .T. ) ;
#134 = ADVANCED_FACE ( 'NONE', ( #200 ), #423, .T. ) ;
#135 = ADVANCED_FACE ( 'NONE', ( #195, #192, #194 ), #411, .T. ) ;
#136 = ADVANCED_FACE ( 'NONE', ( #193 ), #397, .T. ) ;
#137 = ADVANCED_FACE ( 'NONE', ( #197 ), #396, .T. ) ;
#138 = ADVANCED_FACE ( 'NONE', ( #190 ), #387, .F. ) ;
#139 = ADVANCED_FACE ( 'NONE', ( #189, #186, #188 ), #373, .F. ) ;
#140 = ADVANCED_FACE ( 'NONE', ( #187 ), #367, .F. ) ;
#141 = ADVANCED_FACE ( 'NONE', ( #191 ), #407, .T. ) ;
#142 = ADVANCED_FACE ( 'NONE', ( #185, #182 ), #180, .F. ) ;
#143 = APPROVAL_DATE_TIME ( #144, #65 ) ;
#144 = DATE_AND_TIME ( #145, #146 ) ;
#145 = CALENDAR_DATE ( 2012, 9, 11 ) ;
#146 = LOCAL_TIME ( 12, 44, 23.00000000000000000, #147 ) ;
#147 = COORDINATED_UNIVERSAL_TIME_OFFSET ( 4, 0, .AHEAD. ) ;
#148 = APPROVAL_PERSON_ORGANIZATION ( #149, #65, #354 ) ;
#149 = PERSON_AND_ORGANIZATION ( #126, #177 ) ;
#150 = DATE_AND_TIME ( #151, #152 ) ;
#151 = CALENDAR_DATE ( 2012, 9, 11 ) ;
#152 = LOCAL_TIME ( 12, 44, 23.00000000000000000, #153 ) ;
#153 = COORDINATED_UNIVERSAL_TIME_OFFSET ( 4, 0, .AHEAD. ) ;
#154 = PERSON_AND_ORGANIZATION ( #126, #177 ) ;
#155 = PERSON_AND_ORGANIZATION ( #126, #177 ) ;
#156 = PERSON_AND_ORGANIZATION ( #126, #177 ) ;
#157 = APPROVAL_DATE_TIME ( #158, #72 ) ;
#158 = DATE_AND_TIME ( #159, #160 ) ;
#159 = CALENDAR_DATE ( 2012, 9, 11 ) ;
#160 = LOCAL_TIME ( 12, 44, 23.00000000000000000, #161 ) ;
#161 = COORDINATED_UNIVERSAL_TIME_OFFSET ( 4, 0, .AHEAD. ) ;
#162 = APPROVAL_PERSON_ORGANIZATION ( #163, #72, #364 ) ;
#163 = PERSON_AND_ORGANIZATION ( #126, #177 ) ;
#164 = DATE_AND_TIME ( #165, #166 ) ;
#165 = CALENDAR_DATE ( 2012, 9, 11 ) ;
#166 = LOCAL_TIME ( 12, 44, 23.00000000000000000, #167 ) ;
#167 = COORDINATED_UNIVERSAL_TIME_OFFSET ( 4, 0, .AHEAD. ) ;
#168 = PERSON_AND_ORGANIZATION ( #126, #177 ) ;
#169 = APPROVAL_DATE_TIME ( #170, #77 ) ;
#170 = DATE_AND_TIME ( #171, #172 ) ;
#171 = CALENDAR_DATE ( 2012, 9, 11 ) ;
#172 = LOCAL_TIME ( 12, 44, 23.00000000000000000, #173 ) ;
#173 = COORDINATED_UNIVERSAL_TIME_OFFSET ( 4, 0, .AHEAD. ) ;
#174 = APPROVAL_PERSON_ORGANIZATION ( #175, #77, #369 ) ;
#175 = PERSON_AND_ORGANIZATION ( #126, #177 ) ;
#176 = PERSON_AND_ORGANIZATION ( #126, #177 ) ;
#177 = ORGANIZATION ( 'UNSPECIFIED', 'UNSPECIFIED', '' ) ;
#178 = VERTEX_POINT ( 'NONE', #399 ) ;
#179 = VERTEX_POINT ( 'NONE', #402 ) ;
#180 = CYLINDRICAL_SURFACE ( 'NONE', #81, 2.500000000000002200 ) ;
#181 = SHAPE_DEFINITION_REPRESENTATION ( #346, #130 ) ;
#182 = FACE_OUTER_BOUND ( 'NONE', #341, .T. ) ;
#183 = VERTEX_POINT ( 'NONE', #403 ) ;
#184 = VERTEX_POINT ( 'NONE', #398 ) ;
#185 = FACE_OUTER_BOUND ( 'NONE', #335, .T. ) ;
#186 = FACE_BOUND ( 'NONE', #329, .T. ) ;
#187 = FACE_OUTER_BOUND ( 'NONE', #336, .T. ) ;
#188 = FACE_OUTER_BOUND ( 'NONE', #331, .T. ) ;
#189 = FACE_BOUND ( 'NONE', #337, .T. ) ;
#190 = FACE_OUTER_BOUND ( 'NONE', #343, .T. ) ;
#191 = FACE_OUTER_BOUND ( 'NONE', #328, .T. ) ;
#192 = FACE_BOUND ( 'NONE', #344, .T. ) ;
#193 = FACE_OUTER_BOUND ( 'NONE', #326, .T. ) ;
#194 = FACE_OUTER_BOUND ( 'NONE', #345, .T. ) ;
#195 = FACE_BOUND ( 'NONE', #332, .T. ) ;
#196 = CYLINDRICAL_SURFACE ( 'NONE', #92, 2.500000000000057700 ) ;
#197 = FACE_OUTER_BOUND ( 'NONE', #342, .T. ) ;
#198 = FACE_OUTER_BOUND ( 'NONE', #338, .T. ) ;
#199 = FACE_OUTER_BOUND ( 'NONE', #333, .T. ) ;
#200 = FACE_OUTER_BOUND ( 'NONE', #327, .T. ) ;
#201 = VECTOR ( 'NONE', #385, 1000.000000000000000 ) ;
#202 = FACE_OUTER_BOUND ( 'NONE', #339, .T. ) ;
#203 = VECTOR ( 'NONE', #52, 1000.000000000000000 ) ;
#204 = LINE ( 'NONE', #19, #201 ) ;
#205 = VECTOR ( 'NONE', #51, 1000.000000000000000 ) ;
#206 = FACE_OUTER_BOUND ( 'NONE', #330, .T. ) ;
#207 = VECTOR ( 'NONE', #54, 1000.000000000000000 ) ;
#208 = LINE ( 'NONE', #53, #205 ) ;
#209 = VECTOR ( 'NONE', #61, 1000.000000000000000 ) ;
#210 = LINE ( 'NONE', #60, #207 ) ;
#211 = VECTOR ( 'NONE', #22, 1000.000000000000000 ) ;
#212 = LINE ( 'NONE', #10, #203 ) ;
#213 = VECTOR ( 'NONE', #20, 1000.000000000000000 ) ;
#214 = LINE ( 'NONE', #24, #211 ) ;
#215 = LINE ( 'NONE', #21, #213 ) ;
#216 = VECTOR ( 'NONE', #1, 1000.000000000000000 ) ;
#217 = VECTOR ( 'NONE', #6, 1000.000000000000000 ) ;
#218 = CIRCLE ( 'NONE', #93, 2.500000000000002200 ) ;
#219 = LINE ( 'NONE', #32, #217 ) ;
#220 = LINE ( 'NONE', #30, #216 ) ;
#221 = VECTOR ( 'NONE', #31, 1000.000000000000000 ) ;
#222 = LINE ( 'NONE', #2, #209 ) ;
#223 = VECTOR ( 'NONE', #28, 1000.000000000000000 ) ;
#224 = CIRCLE ( 'NONE', #94, 2.500000000000057700 ) ;
#225 = VECTOR ( 'NONE', #11, 1000.000000000000000 ) ;
#226 = LINE ( 'NONE', #29, #223 ) ;
#227 = VECTOR ( 'NONE', #13, 1000.000000000000000 ) ;
#228 = LINE ( 'NONE', #12, #225 ) ;
#229 = VECTOR ( 'NONE', #14, 1000.000000000000000 ) ;
#230 = LINE ( 'NONE', #25, #221 ) ;
#231 = VECTOR ( 'NONE', #16, 1000.000000000000000 ) ;
#232 = LINE ( 'NONE', #15, #229 ) ;
#233 = VECTOR ( 'NONE', #18, 1000.000000000000000 ) ;
#234 = LINE ( 'NONE', #17, #231 ) ;
#235 = VECTOR ( 'NONE', #26, 1000.000000000000000 ) ;
#236 = LINE ( 'NONE', #57, #227 ) ;
#237 = VECTOR ( 'NONE', #46, 1000.000000000000000 ) ;
#238 = LINE ( 'NONE', #45, #235 ) ;
#239 = VECTOR ( 'NONE', #59, 1000.000000000000000 ) ;
#240 = LINE ( 'NONE', #44, #237 ) ;
#241 = LINE ( 'NONE', #35, #233 ) ;
#242 = VECTOR ( 'NONE', #42, 1000.000000000000000 ) ;
#243 = VECTOR ( 'NONE', #58, 1000.000000000000000 ) ;
#244 = CIRCLE ( 'NONE', #95, 2.500000000000002200 ) ;
#245 = LINE ( 'NONE', #36, #243 ) ;
#246 = LINE ( 'NONE', #56, #242 ) ;
#247 = VECTOR ( 'NONE', #33, 1000.000000000000000 ) ;
#248 = LINE ( 'NONE', #41, #239 ) ;
#249 = VECTOR ( 'NONE', #49, 1000.000000000000000 ) ;
#250 = CIRCLE ( 'NONE', #96, 2.500000000000057700 ) ;
#251 = VECTOR ( 'NONE', #27, 1000.000000000000000 ) ;
#252 = LINE ( 'NONE', #50, #251 ) ;
#253 = ORIENTED_EDGE ( 'NONE', *, *, #97, .T. ) ;
#254 = ORIENTED_EDGE ( 'NONE', *, *, #122, .F. ) ;
#255 = ORIENTED_EDGE ( 'NONE', *, *, #123, .F. ) ;
#256 = ORIENTED_EDGE ( 'NONE', *, *, #119, .T. ) ;
#257 = ORIENTED_EDGE ( 'NONE', *, *, #121, .F. ) ;
#258 = ORIENTED_EDGE ( 'NONE', *, *, #124, .F. ) ;
#259 = ORIENTED_EDGE ( 'NONE', *, *, #125, .T. ) ;
#260 = ORIENTED_EDGE ( 'NONE', *, *, #123, .T. ) ;
#261 = ORIENTED_EDGE ( 'NONE', *, *, #98, .F. ) ;
#262 = ORIENTED_EDGE ( 'NONE', *, *, #99, .F. ) ;
#263 = ORIENTED_EDGE ( 'NONE', *, *, #120, .T. ) ;
#264 = ORIENTED_EDGE ( 'NONE', *, *, #124, .T. ) ;
#265 = ORIENTED_EDGE ( 'NONE', *, *, #100, .F. ) ;
#266 = ORIENTED_EDGE ( 'NONE', *, *, #102, .F. ) ;
#267 = ORIENTED_EDGE ( 'NONE', *, *, #103, .F. ) ;
#268 = ORIENTED_EDGE ( 'NONE', *, *, #104, .F. ) ;
#269 = ORIENTED_EDGE ( 'NONE', *, *, #105, .T. ) ;
#270 = ORIENTED_EDGE ( 'NONE', *, *, #99, .T. ) ;
#271 = ORIENTED_EDGE ( 'NONE', *, *, #106, .F. ) ;
#272 = ORIENTED_EDGE ( 'NONE', *, *, #107, .F. ) ;
#273 = ORIENTED_EDGE ( 'NONE', *, *, #108, .T. ) ;
#274 = ORIENTED_EDGE ( 'NONE', *, *, #104, .T. ) ;
#275 = ORIENTED_EDGE ( 'NONE', *, *, #109, .F. ) ;
#276 = ORIENTED_EDGE ( 'NONE', *, *, #110, .F. ) ;
#277 = ORIENTED_EDGE ( 'NONE', *, *, #111, .T. ) ;
#278 = ORIENTED_EDGE ( 'NONE', *, *, #107, .T. ) ;
#279 = ORIENTED_EDGE ( 'NONE', *, *, #112, .T. ) ;
#280 = ORIENTED_EDGE ( 'NONE', *, *, #113, .F. ) ;
#281 = ORIENTED_EDGE ( 'NONE', *, *, #114, .F. ) ;
#282 = ORIENTED_EDGE ( 'NONE', *, *, #110, .T. ) ;
#283 = ORIENTED_EDGE ( 'NONE', *, *, #115, .F. ) ;
#284 = ORIENTED_EDGE ( 'NONE', *, *, #116, .F. ) ;
#285 = ORIENTED_EDGE ( 'NONE', *, *, #117, .T. ) ;
#286 = ORIENTED_EDGE ( 'NONE', *, *, #119, .F. ) ;
#287 = ORIENTED_EDGE ( 'NONE', *, *, #118, .F. ) ;
#288 = ORIENTED_EDGE ( 'NONE', *, *, #113, .T. ) ;
#289 = ORIENTED_EDGE ( 'NONE', *, *, #122, .T. ) ;
#290 = ORIENTED_EDGE ( 'NONE', *, *, #125, .F. ) ;
#291 = ORIENTED_EDGE ( 'NONE', *, *, #120, .F. ) ;
#292 = ORIENTED_EDGE ( 'NONE', *, *, #105, .F. ) ;
#293 = ORIENTED_EDGE ( 'NONE', *, *, #108, .F. ) ;
#294 = ORIENTED_EDGE ( 'NONE', *, *, #111, .F. ) ;
#295 = ORIENTED_EDGE ( 'NONE', *, *, #114, .T. ) ;
#296 = ORIENTED_EDGE ( 'NONE', *, *, #118, .T. ) ;
#297 = ORIENTED_EDGE ( 'NONE', *, *, #97, .F. ) ;
#298 = ORIENTED_EDGE ( 'NONE', *, *, #117, .F. ) ;
#299 = ORIENTED_EDGE ( 'NONE', *, *, #112, .F. ) ;
#300 = ORIENTED_EDGE ( 'NONE', *, *, #109, .T. ) ;
#301 = ORIENTED_EDGE ( 'NONE', *, *, #106, .T. ) ;
#302 = ORIENTED_EDGE ( 'NONE', *, *, #103, .T. ) ;
#303 = ORIENTED_EDGE ( 'NONE', *, *, #98, .T. ) ;
#304 = ORIENTED_EDGE ( 'NONE', *, *, #121, .T. ) ;
#305 = ORIENTED_EDGE ( 'NONE', *, *, #102, .T. ) ;
#306 = ORIENTED_EDGE ( 'NONE', *, *, #116, .T. ) ;
#307 = ORIENTED_EDGE ( 'NONE', *, *, #100, .T. ) ;
#308 = ORIENTED_EDGE ( 'NONE', *, *, #115, .T. ) ;
#309 = CLOSED_SHELL ( 'NONE', ( #132, #133, #134, #135, #136, #137, #138, #139, #140, #141, #142, #131 ) ) ;
#310 = VERTEX_POINT ( 'NONE', #348 ) ;
#311 = VERTEX_POINT ( 'NONE', #431 ) ;
#312 = VERTEX_POINT ( 'NONE', #350 ) ;
#313 = VERTEX_POINT ( 'NONE', #428 ) ;
#314 = VERTEX_POINT ( 'NONE', #427 ) ;
#315 = VERTEX_POINT ( 'NONE', #351 ) ;
#316 = VERTEX_POINT ( 'NONE', #424 ) ;
#317 = VERTEX_POINT ( 'NONE', #349 ) ;
#318 = VERTEX_POINT ( 'NONE', #422 ) ;
#319 = VERTEX_POINT ( 'NONE', #421 ) ;
#320 = VERTEX_POINT ( 'NONE', #420 ) ;
#321 = VERTEX_POINT ( 'NONE', #419 ) ;
#322 = VERTEX_POINT ( 'NONE', #417 ) ;
#323 = VERTEX_POINT ( 'NONE', #416 ) ;
#324 = VERTEX_POINT ( 'NONE', #413 ) ;
#325 = VERTEX_POINT ( 'NONE', #410 ) ;
#326 = EDGE_LOOP ( 'NONE', ( #271, #272, #273, #274 ) ) ;
#327 = EDGE_LOOP ( 'NONE', ( #261, #262, #263, #264 ) ) ;
#328 = EDGE_LOOP ( 'NONE', ( #297, #298, #299, #300, #301, #302, #303, #304 ) ) ;
#329 = EDGE_LOOP ( 'NONE', ( #284 ) ) ;
#330 = EDGE_LOOP ( 'NONE', ( #307 ) ) ;
#331 = EDGE_LOOP ( 'NONE', ( #285, #286, #287, #288 ) ) ;
#332 = EDGE_LOOP ( 'NONE', ( #265 ) ) ;
#333 = EDGE_LOOP ( 'NONE', ( #253, #255, #254, #256 ) ) ;
#334 = LINE ( 'NONE', #47, #247 ) ;
#335 = EDGE_LOOP ( 'NONE', ( #305 ) ) ;
#336 = EDGE_LOOP ( 'NONE', ( #289, #290, #291, #292, #293, #294, #295, #296 ) ) ;
#337 = EDGE_LOOP ( 'NONE', ( #283 ) ) ;
#338 = EDGE_LOOP ( 'NONE', ( #257, #258, #259, #260 ) ) ;
#339 = EDGE_LOOP ( 'NONE', ( #308 ) ) ;
#340 = LINE ( 'NONE', #48, #249 ) ;
#341 = EDGE_LOOP ( 'NONE', ( #306 ) ) ;
#342 = EDGE_LOOP ( 'NONE', ( #275, #276, #277, #278 ) ) ;
#343 = EDGE_LOOP ( 'NONE', ( #279, #280, #281, #282 ) ) ;
#344 = EDGE_LOOP ( 'NONE', ( #266 ) ) ;
#345 = EDGE_LOOP ( 'NONE', ( #267, #268, #269, #270 ) ) ;
#346 = PRODUCT_DEFINITION_SHAPE ( 'NONE', 'NONE',  #78 ) ;
#347 = DESIGN_CONTEXT ( 'detailed design', #375, 'design' ) ;
#348 = CARTESIAN_POINT ( 'NONE',  ( -101.0000000000000000, 0.0000000000000000000, 660.0000000000000000 ) ) ;
#349 = CARTESIAN_POINT ( 'NONE',  ( -101.6000000000000100, 0.5999999999999999800, 0.0000000000000000000 ) ) ;
#350 = CARTESIAN_POINT ( 'NONE',  ( 101.6000000000000100, -14.00000000000000000, 660.0000000000000000 ) ) ;
#351 = CARTESIAN_POINT ( 'NONE',  ( -101.0000000000000000, -14.00000000000000000, 660.0000000000000000 ) ) ;
#352 = CARTESIAN_POINT ( 'NONE',  ( 1.734723475976807100E-015, -14.00099999999999900, 14.99999999999999300 ) ) ;
#353 = DIRECTION ( 'NONE',  ( -1.000000000000000000, 0.0000000000000000000, 0.0000000000000000000 ) ) ;
#354 = APPROVAL_ROLE ( '' ) ;
#355 = APPROVAL_STATUS ( 'not_yet_approved' ) ;
#356 = DIRECTION ( 'NONE',  ( -0.0000000000000000000, 0.0000000000000000000, -1.000000000000000000 ) ) ;
#357 = DIRECTION ( 'NONE',  ( -0.0000000000000000000, 1.000000000000000000, -0.0000000000000000000 ) ) ;
#358 = DATE_TIME_ROLE ( 'classification_date' ) ;
#359 = PERSON_AND_ORGANIZATION_ROLE ( 'classification_officer' ) ;
#360 = SECURITY_CLASSIFICATION_LEVEL ( 'unclassified' ) ;
#361 = PERSON_AND_ORGANIZATION_ROLE ( 'design_supplier' ) ;
#362 = PERSON_AND_ORGANIZATION_ROLE ( 'creator' ) ;
#363 = PLANE ( 'NONE',  #91 ) ;
#364 = APPROVAL_ROLE ( '' ) ;
#365 = APPROVAL_STATUS ( 'not_yet_approved' ) ;
#366 = DATE_TIME_ROLE ( 'creation_date' ) ;
#367 = PLANE ( 'NONE',  #84 ) ;
#368 = PERSON_AND_ORGANIZATION_ROLE ( 'creator' ) ;
#369 = APPROVAL_ROLE ( '' ) ;
#370 = APPROVAL_STATUS ( 'not_yet_approved' ) ;
#371 = DIRECTION ( 'NONE',  ( 0.0000000000000000000, -0.0000000000000000000, 1.000000000000000000 ) ) ;
#372 = CARTESIAN_POINT ( 'NONE',  ( 0.0000000000000000000, 0.0000000000000000000, 660.0000000000000000 ) ) ;
#373 = PLANE ( 'NONE',  #85 ) ;
#374 = APPLICATION_PROTOCOL_DEFINITION ( 'international standard', 'config_control_design', 1994, #375 ) ;
#375 = APPLICATION_CONTEXT ( 'configuration controlled 3d designs of mechanical parts and assemblies' ) ;
#376 = PERSON_AND_ORGANIZATION_ROLE ( 'design_owner' ) ;
#377 = CARTESIAN_POINT ( 'NONE',  ( 0.0000000000000000000, 0.0000000000000000000, 0.0000000000000000000 ) ) ;
#378 = CARTESIAN_POINT ( 'NONE',  ( -101.0000000000000000, 0.0000000000000000000, 660.0000000000000000 ) ) ;
#379 = MECHANICAL_CONTEXT ( 'NONE', #383, 'mechanical' ) ;
#380 = DIRECTION ( 'NONE',  ( 0.0000000000000000000, 0.0000000000000000000, 1.000000000000000000 ) ) ;
#381 = DIRECTION ( 'NONE',  ( 1.000000000000000000, 0.0000000000000000000, 0.0000000000000000000 ) ) ;
#382 = DIRECTION ( 'NONE',  ( -1.000000000000000000, 0.0000000000000000000, 0.0000000000000000000 ) ) ;
#383 = APPLICATION_CONTEXT ( 'configuration controlled 3d designs of mechanical parts and assemblies' ) ;
#384 = DIRECTION ( 'NONE',  ( 0.0000000000000000000, 0.0000000000000000000, 1.000000000000000000 ) ) ;
#385 = DIRECTION ( 'NONE',  ( -1.000000000000000000, 0.0000000000000000000, 0.0000000000000000000 ) ) ;
#386 = APPLICATION_PROTOCOL_DEFINITION ( 'international standard', 'config_control_design', 1994, #383 ) ;
#387 = PLANE ( 'NONE',  #86 ) ;
#388 = DIRECTION ( 'NONE',  ( 0.0000000000000000000, -0.0000000000000000000, -1.000000000000000000 ) ) ;
#389 =( NAMED_UNIT ( * ) SI_UNIT ( $, .STERADIAN. ) SOLID_ANGLE_UNIT ( ) );
#390 = DIRECTION ( 'NONE',  ( 0.0000000000000000000, -1.000000000000000000, 0.0000000000000000000 ) ) ;
#391 =( NAMED_UNIT ( * ) PLANE_ANGLE_UNIT ( ) SI_UNIT ( $, .RADIAN. ) );
#392 = CARTESIAN_POINT ( 'NONE',  ( 101.0000000000000000, 0.0000000000000000000, 660.0000000000000000 ) ) ;
#393 =( LENGTH_UNIT ( ) NAMED_UNIT ( * ) SI_UNIT ( .MILLI., .METRE. ) );
#394 = DIRECTION ( 'NONE',  ( 0.0000000000000000000, 1.000000000000000000, 0.0000000000000000000 ) ) ;
#395 = DIRECTION ( 'NONE',  ( 0.0000000000000000000, 0.0000000000000000000, 1.000000000000000000 ) ) ;
#396 = PLANE ( 'NONE',  #87 ) ;
#397 = PLANE ( 'NONE',  #101 ) ;
#398 = CARTESIAN_POINT ( 'NONE',  ( 1.734723475976807100E-015, 0.0000000000000000000, 17.49999999999999600 ) ) ;
#399 = CARTESIAN_POINT ( 'NONE',  ( 1.734723475976807100E-015, 0.5999999999999999800, 17.49999999999999600 ) ) ;
#400 = DIRECTION ( 'NONE',  ( 0.0000000000000000000, 0.0000000000000000000, 1.000000000000000000 ) ) ;
#401 = CARTESIAN_POINT ( 'NONE',  ( 0.0000000000000000000, 0.0000000000000000000, 0.0000000000000000000 ) ) ;
#402 = CARTESIAN_POINT ( 'NONE',  ( 0.0000000000000000000, 0.0000000000000000000, 647.5000000000001100 ) ) ;
#403 = CARTESIAN_POINT ( 'NONE',  ( 0.0000000000000000000, 0.5999999999999999800, 642.5000000000000000 ) ) ;
#404 = DIRECTION ( 'NONE',  ( -1.000000000000000000, 0.0000000000000000000, 0.0000000000000000000 ) ) ;
#405 = CARTESIAN_POINT ( 'NONE',  ( -101.0000000000000000, 0.0000000000000000000, 660.0000000000000000 ) ) ;
#406 = DIRECTION ( 'NONE',  ( 0.0000000000000000000, 0.0000000000000000000, 1.000000000000000000 ) ) ;
#407 = PLANE ( 'NONE',  #83 ) ;
#408 = DIRECTION ( 'NONE',  ( 0.0000000000000000000, -0.0000000000000000000, 1.000000000000000000 ) ) ;
#409 = CARTESIAN_POINT ( 'NONE',  ( -101.6000000000000100, 0.0000000000000000000, 660.0000000000000000 ) ) ;
#410 = CARTESIAN_POINT ( 'NONE',  ( -101.6000000000000100, -14.00000000000000000, 660.0000000000000000 ) ) ;
#411 = PLANE ( 'NONE',  #88 ) ;
#412 = CARTESIAN_POINT ( 'NONE',  ( -101.0000000000000000, -14.00000000000000000, 660.0000000000000000 ) ) ;
#413 = CARTESIAN_POINT ( 'NONE',  ( 101.6000000000000100, 0.5999999999999999800, 660.0000000000000000 ) ) ;
#414 = CARTESIAN_POINT ( 'NONE',  ( -101.0000000000000000, 0.5999999999999999800, 660.0000000000000000 ) ) ;
#415 = DIRECTION ( 'NONE',  ( -0.0000000000000000000, 0.0000000000000000000, -1.000000000000000000 ) ) ;
#416 = CARTESIAN_POINT ( 'NONE',  ( -101.0000000000000000, -14.00000000000000000, 0.0000000000000000000 ) ) ;
#417 = CARTESIAN_POINT ( 'NONE',  ( -101.6000000000000100, 0.5999999999999999800, 660.0000000000000000 ) ) ;
#418 = DIRECTION ( 'NONE',  ( 1.000000000000000000, 0.0000000000000000000, -0.0000000000000000000 ) ) ;
#419 = CARTESIAN_POINT ( 'NONE',  ( 101.0000000000000000, 0.0000000000000000000, 660.0000000000000000 ) ) ;
#420 = CARTESIAN_POINT ( 'NONE',  ( 101.6000000000000100, -14.00000000000000000, 0.0000000000000000000 ) ) ;
#421 = CARTESIAN_POINT ( 'NONE',  ( 101.0000000000000000, 0.0000000000000000000, 0.0000000000000000000 ) ) ;
#422 = CARTESIAN_POINT ( 'NONE',  ( -101.0000000000000000, 0.0000000000000000000, 0.0000000000000000000 ) ) ;
#423 = PLANE ( 'NONE',  #89 ) ;
#424 = CARTESIAN_POINT ( 'NONE',  ( -101.6000000000000100, -14.00000000000000000, 0.0000000000000000000 ) ) ;
#425 = DIRECTION ( 'NONE',  ( -0.0000000000000000000, 0.0000000000000000000, -1.000000000000000000 ) ) ;
#426 = DIRECTION ( 'NONE',  ( -1.000000000000000000, 0.0000000000000000000, 0.0000000000000000000 ) ) ;
#427 = CARTESIAN_POINT ( 'NONE',  ( 101.6000000000000100, 0.5999999999999999800, 0.0000000000000000000 ) ) ;
#428 = CARTESIAN_POINT ( 'NONE',  ( 101.0000000000000000, -14.00000000000000000, 660.0000000000000000 ) ) ;
#429 = DIRECTION ( 'NONE',  ( 0.0000000000000000000, -0.0000000000000000000, -1.000000000000000000 ) ) ;
#430 = DIRECTION ( 'NONE',  ( 0.0000000000000000000, -1.000000000000000000, 0.0000000000000000000 ) ) ;
#431 = CARTESIAN_POINT ( 'NONE',  ( 101.0000000000000000, -14.00000000000000000, 0.0000000000000000000 ) ) ;
#432 = DIRECTION ( 'NONE',  ( 0.0000000000000000000, 1.000000000000000000, 0.0000000000000000000 ) ) ;
#433 = PLANE ( 'NONE',  #90 ) ;
#434 = DIRECTION ( 'NONE',  ( -0.0000000000000000000, 0.0000000000000000000, -1.000000000000000000 ) ) ;
#435 = DIRECTION ( 'NONE',  ( 1.000000000000000000, 0.0000000000000000000, -0.0000000000000000000 ) ) ;
#436 = CARTESIAN_POINT ( 'NONE',  ( 101.6000000000000100, 0.0000000000000000000, 660.0000000000000000 ) ) ;
#437 = CARTESIAN_POINT ( 'NONE',  ( 101.6000000000000100, -14.00000000000000000, 660.0000000000000000 ) ) ;
ENDSEC;
END-ISO-10303-21;
