ISO-10303-21;
HEADER;
FILE_DESCRIPTION (( 'STEP AP203' ),
    '1' );
FILE_NAME ('Êðûøêà íà îòâåòâèòåëü Ò-îáðàçíûé âåðòèêàëüíûé TD_38306.STEP',
    '2012-11-15T11:28:05',
    ( 'Àñååâ' ),
    ( '' ),
    'SwSTEP 2.0',
    'SolidWorks 2012',
    '' );
FILE_SCHEMA (( 'CONFIG_CONTROL_DESIGN' ));
ENDSEC;

DATA;
#1 = CC_DESIGN_DATE_AND_TIME_ASSIGNMENT ( #365, #284, ( #114 ) ) ;
#2 = SECURITY_CLASSIFICATION ( '', '', #289 ) ;
#3 = CC_DESIGN_DATE_AND_TIME_ASSIGNMENT ( #379, #291, ( #2 ) ) ;
#4 = CC_DESIGN_PERSON_AND_ORGANIZATION_ASSIGNMENT ( #373, #287, ( #11 ) ) ;
#5 = APPROVAL ( #292, 'UNSPECIFIED' ) ;
#6 = CC_DESIGN_APPROVAL ( #8, ( #11 ) ) ;
#7 = CC_DESIGN_PERSON_AND_ORGANIZATION_ASSIGNMENT ( #374, #288, ( #11 ) ) ;
#8 = APPROVAL ( #285, 'UNSPECIFIED' ) ;
#9 = CC_DESIGN_PERSON_AND_ORGANIZATION_ASSIGNMENT ( #361, #283, ( #114 ) ) ;
#10 = CC_DESIGN_PERSON_AND_ORGANIZATION_ASSIGNMENT ( #375, #290, ( #2 ) ) ;
#11 = PRODUCT_DEFINITION_FORMATION_WITH_SPECIFIED_SOURCE ( 'ANY', '', #61, .NOT_KNOWN. ) ;
#12 = CC_DESIGN_APPROVAL ( #14, ( #114 ) ) ;
#13 = CC_DESIGN_APPROVAL ( #5, ( #2 ) ) ;
#14 = APPROVAL ( #281, 'UNSPECIFIED' ) ;
#15 = PRODUCT_RELATED_PRODUCT_CATEGORY ( 'detail', '', ( #61 ) ) ;
#16 = CC_DESIGN_SECURITY_CLASSIFICATION ( #2, ( #11 ) ) ;
#17 = DIRECTION ( 'NONE',  ( 0.0000000000000000000, 0.0000000000000000000, 1.000000000000000000 ) ) ;
#18 = CARTESIAN_POINT ( 'NONE',  ( -201.5999999999999900, 0.5999999999999999800, 345.0000000000000000 ) ) ;
#19 = CARTESIAN_POINT ( 'NONE',  ( 201.5999999999999900, 0.0000000000000000000, 0.0000000000000000000 ) ) ;
#20 = DIRECTION ( 'NONE',  ( -0.0000000000000000000, -1.000000000000000000, 0.0000000000000000000 ) ) ;
#21 = CARTESIAN_POINT ( 'NONE',  ( -201.0000000000000000, 0.5999999999999999800, 0.0000000000000000000 ) ) ;
#22 = ADVANCED_BREP_SHAPE_REPRESENTATION ( '¦¨v°úð ýð þªòõªòøªõû¹ T-þñ¨ð÷ývù òõ¨ªøúðû¹ývù TD_38306', ( #23, #115 ), #117 ) ;
#23 = MANIFOLD_SOLID_BREP ( 'Âûðåç-Âûòÿíóòü1', #34 ) ;
#24 = UNCERTAINTY_MEASURE_WITH_UNIT (LENGTH_MEASURE( 1.000000000000000100E-005 ), #200, 'distance_accuracy_value', 'NONE');
#25 = DIRECTION ( 'NONE',  ( -1.000000000000000000, 0.0000000000000000000, 0.0000000000000000000 ) ) ;
#26 = PLANE ( 'NONE',  #122 ) ;
#27 = CARTESIAN_POINT ( 'NONE',  ( 201.0000000000000000, 0.0000000000000000000, 345.0000000000000000 ) ) ;
#28 = DIRECTION ( 'NONE',  ( 0.0000000000000000000, -1.000000000000000000, 0.0000000000000000000 ) ) ;
#29 = DIRECTION ( 'NONE',  ( 0.0000000000000000000, -0.0000000000000000000, -1.000000000000000000 ) ) ;
#30 = DIRECTION ( 'NONE',  ( 0.0000000000000000000, 1.000000000000000000, 0.0000000000000000000 ) ) ;
#31 = CARTESIAN_POINT ( 'NONE',  ( 201.5999999999999900, -14.00000000000000000, 345.0000000000000000 ) ) ;
#32 = DIRECTION ( 'NONE',  ( 0.0000000000000000000, 0.0000000000000000000, 1.000000000000000000 ) ) ;
#33 = CARTESIAN_POINT ( 'NONE',  ( 1.734723475976807100E-015, 0.5999999999999999800, 14.99999999999999300 ) ) ;
#34 = CLOSED_SHELL ( 'NONE', ( #76, #75, #71, #77, #73, #72, #74, #68, #69, #66, #70, #67 ) ) ;
#35 = VERTEX_POINT ( 'NONE', #395 ) ;
#36 = VERTEX_POINT ( 'NONE', #396 ) ;
#37 = VERTEX_POINT ( 'NONE', #388 ) ;
#38 = VERTEX_POINT ( 'NONE', #387 ) ;
#39 = VERTEX_POINT ( 'NONE', #398 ) ;
#40 = VERTEX_POINT ( 'NONE', #397 ) ;
#41 = VERTEX_POINT ( 'NONE', #399 ) ;
#42 = VERTEX_POINT ( 'NONE', #400 ) ;
#43 = VERTEX_POINT ( 'NONE', #401 ) ;
#44 = VERTEX_POINT ( 'NONE', #402 ) ;
#45 = VERTEX_POINT ( 'NONE', #418 ) ;
#46 = VERTEX_POINT ( 'NONE', #419 ) ;
#47 = VERTEX_POINT ( 'NONE', #420 ) ;
#48 = VERTEX_POINT ( 'NONE', #421 ) ;
#49 = VERTEX_POINT ( 'NONE', #422 ) ;
#50 = VERTEX_POINT ( 'NONE', #423 ) ;
#51 = ORIENTED_EDGE ( 'NONE', *, *, #103, .T. ) ;
#52 = ORIENTED_EDGE ( 'NONE', *, *, #131, .F. ) ;
#53 = ORIENTED_EDGE ( 'NONE', *, *, #132, .T. ) ;
#54 = ORIENTED_EDGE ( 'NONE', *, *, #124, .F. ) ;
#55 = ORIENTED_EDGE ( 'NONE', *, *, #98, .F. ) ;
#56 = ORIENTED_EDGE ( 'NONE', *, *, #104, .F. ) ;
#57 = ORIENTED_EDGE ( 'NONE', *, *, #127, .F. ) ;
#58 = CARTESIAN_POINT ( 'NONE',  ( -201.0000000000000000, 0.5999999999999999800, 345.0000000000000000 ) ) ;
#59 = DIRECTION ( 'NONE',  ( -0.0000000000000000000, 1.000000000000000000, -0.0000000000000000000 ) ) ;
#60 = CARTESIAN_POINT ( 'NONE',  ( 2.653208575337321500E-015, 0.5999999999999999800, 330.0000000000000000 ) ) ;
#61 = PRODUCT ( 'Êðûøêà íà îòâåòâèòåëü Ò-îáðàçíûé âåðòèêàëüíûé TD_38306', 'Êðûøêà íà îòâåòâèòåëü Ò-îáðàçíûé âåðòèêàëüíûé TD_38306', '', ( #277 ) ) ;
#62 = PERSON ( 'UNSPECIFIED', 'UNSPECIFIED', 'UNSPECIFIED', ('UNSPECIFIED'), ('UNSPECIFIED'), ('UNSPECIFIED') ) ;
#63 = ORIENTED_EDGE ( 'NONE', *, *, #97, .T. ) ;
#64 = DESIGN_CONTEXT ( 'detailed design', #279, 'design' ) ;
#65 = PRODUCT_DEFINITION_SHAPE ( 'NONE', 'NONE',  #114 ) ;
#66 = ADVANCED_FACE ( 'NONE', ( #262 ), #411, .T. ) ;
#67 = ADVANCED_FACE ( 'NONE', ( #261, #266 ), #264, .F. ) ;
#68 = ADVANCED_FACE ( 'NONE', ( #259, #263, #260 ), #424, .F. ) ;
#69 = ADVANCED_FACE ( 'NONE', ( #258 ), #403, .F. ) ;
#70 = ADVANCED_FACE ( 'NONE', ( #265, #270 ), #271, .F. ) ;
#71 = ADVANCED_FACE ( 'NONE', ( #267 ), #431, .T. ) ;
#72 = ADVANCED_FACE ( 'NONE', ( #268 ), #426, .T. ) ;
#73 = ADVANCED_FACE ( 'NONE', ( #269 ), #391, .T. ) ;
#74 = ADVANCED_FACE ( 'NONE', ( #272 ), #390, .F. ) ;
#75 = ADVANCED_FACE ( 'NONE', ( #273 ), #392, .T. ) ;
#76 = ADVANCED_FACE ( 'NONE', ( #274 ), #26, .F. ) ;
#77 = ADVANCED_FACE ( 'NONE', ( #275, #294, #276 ), #81, .T. ) ;
#78 = DIRECTION ( 'NONE',  ( 0.0000000000000000000, 0.0000000000000000000, -1.000000000000000000 ) ) ;
#79 = CARTESIAN_POINT ( 'NONE',  ( -201.5999999999999900, 0.0000000000000000000, 0.0000000000000000000 ) ) ;
#80 = DIRECTION ( 'NONE',  ( 1.000000000000000000, 0.0000000000000000000, -0.0000000000000000000 ) ) ;
#81 = PLANE ( 'NONE',  #121 ) ;
#82 = DIRECTION ( 'NONE',  ( -0.0000000000000000000, -1.000000000000000000, 0.0000000000000000000 ) ) ;
#83 = CARTESIAN_POINT ( 'NONE',  ( -201.0000000000000000, 0.5999999999999999800, 345.0000000000000000 ) ) ;
#84 = CARTESIAN_POINT ( 'NONE',  ( 201.5999999999999900, 0.0000000000000000000, 345.0000000000000000 ) ) ;
#85 = DIRECTION ( 'NONE',  ( 0.0000000000000000000, 1.000000000000000000, 0.0000000000000000000 ) ) ;
#86 = DIRECTION ( 'NONE',  ( 0.0000000000000000000, -0.0000000000000000000, 1.000000000000000000 ) ) ;
#87 = DIRECTION ( 'NONE',  ( -0.0000000000000000000, 0.0000000000000000000, -1.000000000000000000 ) ) ;
#88 = AXIS2_PLACEMENT_3D ( 'NONE', #428, #393, #394 ) ;
#89 = AXIS2_PLACEMENT_3D ( 'NONE', #427, #435, #436 ) ;
#90 = AXIS2_PLACEMENT_3D ( 'NONE', #430, #429, #425 ) ;
#91 = AXIS2_PLACEMENT_3D ( 'NONE', #432, #404, #410 ) ;
#92 = AXIS2_PLACEMENT_3D ( 'NONE', #406, #405, #433 ) ;
#93 = AXIS2_PLACEMENT_3D ( 'NONE', #409, #408, #407 ) ;
#94 = AXIS2_PLACEMENT_3D ( 'NONE', #415, #417, #412 ) ;
#95 = AXIS2_PLACEMENT_3D ( 'NONE', #416, #413, #414 ) ;
#96 = EDGE_CURVE ( 'NONE', #35, #40, #297, .T. ) ;
#97 = EDGE_CURVE ( 'NONE', #45, #38, #299, .T. ) ;
#98 = EDGE_CURVE ( 'NONE', #343, #343, #296, .T. ) ;
#99 = EDGE_CURVE ( 'NONE', #349, #349, #303, .T. ) ;
#100 = EDGE_CURVE ( 'NONE', #44, #35, #301, .T. ) ;
#101 = EDGE_CURVE ( 'NONE', #47, #44, #302, .T. ) ;
#102 = EDGE_CURVE ( 'NONE', #47, #45, #298, .T. ) ;
#103 = EDGE_CURVE ( 'NONE', #43, #44, #306, .T. ) ;
#104 = EDGE_CURVE ( 'NONE', #42, #41, #309, .T. ) ;
#105 = EDGE_CURVE ( 'NONE', #48, #43, #307, .T. ) ;
#106 = EDGE_CURVE ( 'NONE', #48, #47, #311, .T. ) ;
#107 = EDGE_CURVE ( 'NONE', #46, #43, #315, .T. ) ;
#108 = EDGE_CURVE ( 'NONE', #49, #46, #317, .T. ) ;
#109 = EDGE_CURVE ( 'NONE', #49, #48, #313, .T. ) ;
#110 = EDGE_CURVE ( 'NONE', #46, #39, #321, .T. ) ;
#111 = EDGE_CURVE ( 'NONE', #50, #39, #323, .T. ) ;
#112 = EDGE_CURVE ( 'NONE', #49, #50, #319, .T. ) ;
#113 = CC_DESIGN_PERSON_AND_ORGANIZATION_ASSIGNMENT ( #353, #278, ( #61 ) ) ;
#114 = PRODUCT_DEFINITION ( 'UNKNOWN', '', #11, #64 ) ;
#115 = AXIS2_PLACEMENT_3D ( 'NONE', #195, #199, #205 ) ;
#116 = AXIS2_PLACEMENT_3D ( 'NONE', #178, #179, #180 ) ;
#117 =( GEOMETRIC_REPRESENTATION_CONTEXT ( 3 ) GLOBAL_UNCERTAINTY_ASSIGNED_CONTEXT ( ( #24 ) ) GLOBAL_UNIT_ASSIGNED_CONTEXT ( ( #200, #201, #202 ) ) REPRESENTATION_CONTEXT ( 'NONE', 'WORKASPACE' ) );
#118 = AXIS2_PLACEMENT_3D ( 'NONE', #33, #30, #17 ) ;
#119 = AXIS2_PLACEMENT_3D ( 'NONE', #172, #173, #174 ) ;
#120 = AXIS2_PLACEMENT_3D ( 'NONE', #60, #59, #78 ) ;
#121 = AXIS2_PLACEMENT_3D ( 'NONE', #83, #85, #86 ) ;
#122 = AXIS2_PLACEMENT_3D ( 'NONE', #27, #80, #87 ) ;
#123 = EDGE_CURVE ( 'NONE', #350, #350, #325, .T. ) ;
#124 = EDGE_CURVE ( 'NONE', #38, #40, #330, .T. ) ;
#125 = EDGE_CURVE ( 'NONE', #351, #351, #329, .T. ) ;
#126 = EDGE_CURVE ( 'NONE', #39, #41, #331, .T. ) ;
#127 = EDGE_CURVE ( 'NONE', #50, #42, #333, .T. ) ;
#128 = EDGE_CURVE ( 'NONE', #41, #37, #336, .T. ) ;
#129 = EDGE_CURVE ( 'NONE', #42, #36, #337, .T. ) ;
#130 = AXIS2_PLACEMENT_3D ( 'NONE', #434, #25, #32 ) ;
#131 = EDGE_CURVE ( 'NONE', #40, #37, #339, .T. ) ;
#132 = EDGE_CURVE ( 'NONE', #38, #36, #341, .T. ) ;
#133 = EDGE_CURVE ( 'NONE', #36, #37, #327, .T. ) ;
#134 = EDGE_CURVE ( 'NONE', #45, #35, #345, .T. ) ;
#135 = AXIS2_PLACEMENT_3D ( 'NONE', #31, #28, #29 ) ;
#136 = ORIENTED_EDGE ( 'NONE', *, *, #124, .T. ) ;
#137 = ORIENTED_EDGE ( 'NONE', *, *, #102, .T. ) ;
#138 = ORIENTED_EDGE ( 'NONE', *, *, #105, .F. ) ;
#139 = ORIENTED_EDGE ( 'NONE', *, *, #133, .F. ) ;
#140 = ORIENTED_EDGE ( 'NONE', *, *, #132, .F. ) ;
#141 = ORIENTED_EDGE ( 'NONE', *, *, #133, .T. ) ;
#142 = ORIENTED_EDGE ( 'NONE', *, *, #107, .T. ) ;
#143 = ORIENTED_EDGE ( 'NONE', *, *, #108, .F. ) ;
#144 = ORIENTED_EDGE ( 'NONE', *, *, #107, .F. ) ;
#145 = ORIENTED_EDGE ( 'NONE', *, *, #100, .F. ) ;
#146 = ORIENTED_EDGE ( 'NONE', *, *, #101, .T. ) ;
#147 = ORIENTED_EDGE ( 'NONE', *, *, #96, .T. ) ;
#148 = ORIENTED_EDGE ( 'NONE', *, *, #123, .F. ) ;
#149 = ORIENTED_EDGE ( 'NONE', *, *, #129, .T. ) ;
#150 = DIRECTION ( 'NONE',  ( 1.000000000000000000, 0.0000000000000000000, 0.0000000000000000000 ) ) ;
#151 = DIRECTION ( 'NONE',  ( 1.000000000000000000, 0.0000000000000000000, 0.0000000000000000000 ) ) ;
#152 = CARTESIAN_POINT ( 'NONE',  ( -201.5999999999999900, 0.0000000000000000000, 345.0000000000000000 ) ) ;
#153 = DIRECTION ( 'NONE',  ( 0.0000000000000000000, 1.000000000000000000, 0.0000000000000000000 ) ) ;
#154 = CARTESIAN_POINT ( 'NONE',  ( 201.0000000000000000, 0.0000000000000000000, 345.0000000000000000 ) ) ;
#155 = CARTESIAN_POINT ( 'NONE',  ( -201.0000000000000000, -14.00000000000000000, 345.0000000000000000 ) ) ;
#156 = DIRECTION ( 'NONE',  ( -0.0000000000000000000, -0.0000000000000000000, -1.000000000000000000 ) ) ;
#157 = DIRECTION ( 'NONE',  ( -0.0000000000000000000, -0.0000000000000000000, -1.000000000000000000 ) ) ;
#158 = CARTESIAN_POINT ( 'NONE',  ( -201.0000000000000000, 0.0000000000000000000, 345.0000000000000000 ) ) ;
#159 = DIRECTION ( 'NONE',  ( 0.0000000000000000000, 1.000000000000000000, 0.0000000000000000000 ) ) ;
#160 = CARTESIAN_POINT ( 'NONE',  ( -201.0000000000000000, -14.00000000000000000, 0.0000000000000000000 ) ) ;
#161 = DIRECTION ( 'NONE',  ( -1.000000000000000000, 0.0000000000000000000, 0.0000000000000000000 ) ) ;
#162 = CARTESIAN_POINT ( 'NONE',  ( -201.0000000000000000, -14.00000000000000000, 345.0000000000000000 ) ) ;
#163 = DIRECTION ( 'NONE',  ( -0.0000000000000000000, -0.0000000000000000000, -1.000000000000000000 ) ) ;
#164 = DIRECTION ( 'NONE',  ( -1.000000000000000000, 0.0000000000000000000, 0.0000000000000000000 ) ) ;
#165 = CARTESIAN_POINT ( 'NONE',  ( -201.0000000000000000, 0.0000000000000000000, 0.0000000000000000000 ) ) ;
#166 = DIRECTION ( 'NONE',  ( -0.0000000000000000000, 1.000000000000000000, -0.0000000000000000000 ) ) ;
#167 = CARTESIAN_POINT ( 'NONE',  ( -201.0000000000000000, 0.0000000000000000000, 345.0000000000000000 ) ) ;
#168 = CARTESIAN_POINT ( 'NONE',  ( 201.5999999999999900, -14.00000000000000000, 345.0000000000000000 ) ) ;
#169 = DIRECTION ( 'NONE',  ( -0.0000000000000000000, -0.0000000000000000000, -1.000000000000000000 ) ) ;
#170 = DIRECTION ( 'NONE',  ( -0.0000000000000000000, 1.000000000000000000, -0.0000000000000000000 ) ) ;
#171 = CARTESIAN_POINT ( 'NONE',  ( -201.0000000000000000, 0.0000000000000000000, 345.0000000000000000 ) ) ;
#172 = CARTESIAN_POINT ( 'NONE',  ( 2.653208575337321500E-015, 0.0000000000000000000, 330.0000000000000000 ) ) ;
#173 = DIRECTION ( 'NONE',  ( -0.0000000000000000000, -1.000000000000000000, -0.0000000000000000000 ) ) ;
#174 = DIRECTION ( 'NONE',  ( 0.0000000000000000000, 0.0000000000000000000, 1.000000000000000000 ) ) ;
#175 = DIRECTION ( 'NONE',  ( -0.0000000000000000000, -0.0000000000000000000, -1.000000000000000000 ) ) ;
#176 = CARTESIAN_POINT ( 'NONE',  ( -201.0000000000000000, 0.0000000000000000000, 0.0000000000000000000 ) ) ;
#177 = CARTESIAN_POINT ( 'NONE',  ( 2.653208575337321500E-015, 0.0000000000000000000, 332.5000000000000000 ) ) ;
#178 = CARTESIAN_POINT ( 'NONE',  ( 1.734723475976807100E-015, 0.0000000000000000000, 14.99999999999999300 ) ) ;
#179 = DIRECTION ( 'NONE',  ( -0.0000000000000000000, -1.000000000000000000, -0.0000000000000000000 ) ) ;
#180 = DIRECTION ( 'NONE',  ( 0.0000000000000000000, 0.0000000000000000000, 1.000000000000000000 ) ) ;
#181 = DIRECTION ( 'NONE',  ( 1.000000000000000000, 0.0000000000000000000, 0.0000000000000000000 ) ) ;
#182 = CARTESIAN_POINT ( 'NONE',  ( 201.0000000000000000, -14.00000000000000000, 345.0000000000000000 ) ) ;
#183 = DIRECTION ( 'NONE',  ( 1.000000000000000000, 0.0000000000000000000, 0.0000000000000000000 ) ) ;
#184 = CARTESIAN_POINT ( 'NONE',  ( 201.0000000000000000, 0.0000000000000000000, 0.0000000000000000000 ) ) ;
#185 = DIRECTION ( 'NONE',  ( 0.0000000000000000000, -1.000000000000000000, 0.0000000000000000000 ) ) ;
#186 = CARTESIAN_POINT ( 'NONE',  ( 201.0000000000000000, 0.0000000000000000000, 345.0000000000000000 ) ) ;
#187 = DIRECTION ( 'NONE',  ( 0.0000000000000000000, -1.000000000000000000, 0.0000000000000000000 ) ) ;
#188 = CARTESIAN_POINT ( 'NONE',  ( 201.5999999999999900, -14.00000000000000000, 0.0000000000000000000 ) ) ;
#189 = DIRECTION ( 'NONE',  ( -1.000000000000000000, 0.0000000000000000000, 0.0000000000000000000 ) ) ;
#190 = CARTESIAN_POINT ( 'NONE',  ( 201.5999999999999900, -14.00000000000000000, 345.0000000000000000 ) ) ;
#191 = CARTESIAN_POINT ( 'NONE',  ( 2.653208575337321500E-015, 0.5999999999999999800, 327.5000000000000000 ) ) ;
#192 = DIRECTION ( 'NONE',  ( -1.000000000000000000, 0.0000000000000000000, 0.0000000000000000000 ) ) ;
#193 = DIRECTION ( 'NONE',  ( -0.0000000000000000000, -0.0000000000000000000, -1.000000000000000000 ) ) ;
#194 = CARTESIAN_POINT ( 'NONE',  ( 201.5999999999999900, 0.5999999999999999800, 345.0000000000000000 ) ) ;
#195 = CARTESIAN_POINT ( 'NONE',  ( 0.0000000000000000000, 0.0000000000000000000, 0.0000000000000000000 ) ) ;
#196 = DIRECTION ( 'NONE',  ( -0.0000000000000000000, -0.0000000000000000000, -1.000000000000000000 ) ) ;
#197 = CARTESIAN_POINT ( 'NONE',  ( 1.734723475976807100E-015, 0.5999999999999999800, 17.49999999999999600 ) ) ;
#198 = CARTESIAN_POINT ( 'NONE',  ( 1.734723475976807100E-015, 0.0000000000000000000, 17.49999999999999600 ) ) ;
#199 = DIRECTION ( 'NONE',  ( 0.0000000000000000000, 0.0000000000000000000, 1.000000000000000000 ) ) ;
#200 =( LENGTH_UNIT ( ) NAMED_UNIT ( * ) SI_UNIT ( .MILLI., .METRE. ) );
#201 =( NAMED_UNIT ( * ) PLANE_ANGLE_UNIT ( ) SI_UNIT ( $, .RADIAN. ) );
#202 =( NAMED_UNIT ( * ) SI_UNIT ( $, .STERADIAN. ) SOLID_ANGLE_UNIT ( ) );
#203 = APPLICATION_PROTOCOL_DEFINITION ( 'international standard', 'config_control_design', 1994, #204 ) ;
#204 = APPLICATION_CONTEXT ( 'configuration controlled 3d designs of mechanical parts and assemblies' ) ;
#205 = DIRECTION ( 'NONE',  ( 1.000000000000000000, 0.0000000000000000000, 0.0000000000000000000 ) ) ;
#206 = ORIENTED_EDGE ( 'NONE', *, *, #134, .T. ) ;
#207 = ORIENTED_EDGE ( 'NONE', *, *, #111, .F. ) ;
#208 = ORIENTED_EDGE ( 'NONE', *, *, #105, .T. ) ;
#209 = ORIENTED_EDGE ( 'NONE', *, *, #109, .T. ) ;
#210 = ORIENTED_EDGE ( 'NONE', *, *, #100, .T. ) ;
#211 = ORIENTED_EDGE ( 'NONE', *, *, #112, .F. ) ;
#212 = ORIENTED_EDGE ( 'NONE', *, *, #110, .F. ) ;
#213 = ORIENTED_EDGE ( 'NONE', *, *, #97, .F. ) ;
#214 = ORIENTED_EDGE ( 'NONE', *, *, #123, .T. ) ;
#215 = ORIENTED_EDGE ( 'NONE', *, *, #125, .T. ) ;
#216 = ORIENTED_EDGE ( 'NONE', *, *, #98, .T. ) ;
#217 = ORIENTED_EDGE ( 'NONE', *, *, #134, .F. ) ;
#218 = ORIENTED_EDGE ( 'NONE', *, *, #103, .F. ) ;
#219 = ORIENTED_EDGE ( 'NONE', *, *, #104, .T. ) ;
#220 = ORIENTED_EDGE ( 'NONE', *, *, #96, .F. ) ;
#221 = ORIENTED_EDGE ( 'NONE', *, *, #126, .F. ) ;
#222 = ORIENTED_EDGE ( 'NONE', *, *, #106, .T. ) ;
#223 = ORIENTED_EDGE ( 'NONE', *, *, #126, .T. ) ;
#224 = ORIENTED_EDGE ( 'NONE', *, *, #99, .T. ) ;
#225 = ORIENTED_EDGE ( 'NONE', *, *, #99, .F. ) ;
#226 = ORIENTED_EDGE ( 'NONE', *, *, #128, .T. ) ;
#227 = ORIENTED_EDGE ( 'NONE', *, *, #129, .F. ) ;
#228 = ORIENTED_EDGE ( 'NONE', *, *, #131, .T. ) ;
#229 = ORIENTED_EDGE ( 'NONE', *, *, #125, .F. ) ;
#230 = ORIENTED_EDGE ( 'NONE', *, *, #108, .T. ) ;
#231 = ORIENTED_EDGE ( 'NONE', *, *, #127, .T. ) ;
#232 = ORIENTED_EDGE ( 'NONE', *, *, #128, .F. ) ;
#233 = ORIENTED_EDGE ( 'NONE', *, *, #106, .F. ) ;
#234 = ORIENTED_EDGE ( 'NONE', *, *, #109, .F. ) ;
#235 = ORIENTED_EDGE ( 'NONE', *, *, #102, .F. ) ;
#236 = ORIENTED_EDGE ( 'NONE', *, *, #112, .T. ) ;
#237 = ORIENTED_EDGE ( 'NONE', *, *, #110, .T. ) ;
#238 = ORIENTED_EDGE ( 'NONE', *, *, #101, .F. ) ;
#239 = ORIENTED_EDGE ( 'NONE', *, *, #111, .T. ) ;
#240 = EDGE_LOOP ( 'NONE', ( #226, #139, #227, #219 ) ) ;
#241 = EDGE_LOOP ( 'NONE', ( #223, #56, #57, #239 ) ) ;
#242 = EDGE_LOOP ( 'NONE', ( #216 ) ) ;
#243 = EDGE_LOOP ( 'NONE', ( #229 ) ) ;
#244 = EDGE_LOOP ( 'NONE', ( #52, #54, #53, #141 ) ) ;
#245 = EDGE_LOOP ( 'NONE', ( #145, #238, #137, #206 ) ) ;
#246 = EDGE_LOOP ( 'NONE', ( #148 ) ) ;
#247 = EDGE_LOOP ( 'NONE', ( #237, #207, #211, #230 ) ) ;
#248 = EDGE_LOOP ( 'NONE', ( #218, #138, #222, #146 ) ) ;
#249 = EDGE_LOOP ( 'NONE', ( #149, #140, #213, #235, #233, #234, #236, #231 ) ) ;
#250 = EDGE_LOOP ( 'NONE', ( #55 ) ) ;
#251 = EDGE_LOOP ( 'NONE', ( #225 ) ) ;
#252 = EDGE_LOOP ( 'NONE', ( #232, #221, #212, #142, #51, #210, #147, #228 ) ) ;
#253 = EDGE_LOOP ( 'NONE', ( #214 ) ) ;
#254 = EDGE_LOOP ( 'NONE', ( #224 ) ) ;
#255 = EDGE_LOOP ( 'NONE', ( #215 ) ) ;
#256 = EDGE_LOOP ( 'NONE', ( #220, #217, #63, #136 ) ) ;
#257 = EDGE_LOOP ( 'NONE', ( #144, #143, #209, #208 ) ) ;
#258 = FACE_OUTER_BOUND ( 'NONE', #249, .T. ) ;
#259 = FACE_BOUND ( 'NONE', #246, .T. ) ;
#260 = FACE_OUTER_BOUND ( 'NONE', #241, .T. ) ;
#261 = FACE_OUTER_BOUND ( 'NONE', #242, .T. ) ;
#262 = FACE_OUTER_BOUND ( 'NONE', #252, .T. ) ;
#263 = FACE_BOUND ( 'NONE', #243, .T. ) ;
#264 = CYLINDRICAL_SURFACE ( 'NONE', #94, 2.500000000000002200 ) ;
#265 = FACE_OUTER_BOUND ( 'NONE', #254, .T. ) ;
#266 = FACE_OUTER_BOUND ( 'NONE', #253, .T. ) ;
#267 = FACE_OUTER_BOUND ( 'NONE', #256, .T. ) ;
#268 = FACE_OUTER_BOUND ( 'NONE', #257, .T. ) ;
#269 = FACE_OUTER_BOUND ( 'NONE', #248, .T. ) ;
#270 = FACE_OUTER_BOUND ( 'NONE', #255, .T. ) ;
#271 = CYLINDRICAL_SURFACE ( 'NONE', #91, 2.500000000000002200 ) ;
#272 = FACE_OUTER_BOUND ( 'NONE', #247, .T. ) ;
#273 = FACE_OUTER_BOUND ( 'NONE', #244, .T. ) ;
#274 = FACE_OUTER_BOUND ( 'NONE', #240, .T. ) ;
#275 = FACE_BOUND ( 'NONE', #250, .T. ) ;
#276 = FACE_OUTER_BOUND ( 'NONE', #245, .T. ) ;
#277 = MECHANICAL_CONTEXT ( 'NONE', #204, 'mechanical' ) ;
#278 = PERSON_AND_ORGANIZATION_ROLE ( 'design_owner' ) ;
#279 = APPLICATION_CONTEXT ( 'configuration controlled 3d designs of mechanical parts and assemblies' ) ;
#280 = APPLICATION_PROTOCOL_DEFINITION ( 'international standard', 'config_control_design', 1994, #279 ) ;
#281 = APPROVAL_STATUS ( 'not_yet_approved' ) ;
#282 = APPROVAL_ROLE ( '' ) ;
#283 = PERSON_AND_ORGANIZATION_ROLE ( 'creator' ) ;
#284 = DATE_TIME_ROLE ( 'creation_date' ) ;
#285 = APPROVAL_STATUS ( 'not_yet_approved' ) ;
#286 = APPROVAL_ROLE ( '' ) ;
#287 = PERSON_AND_ORGANIZATION_ROLE ( 'creator' ) ;
#288 = PERSON_AND_ORGANIZATION_ROLE ( 'design_supplier' ) ;
#289 = SECURITY_CLASSIFICATION_LEVEL ( 'unclassified' ) ;
#290 = PERSON_AND_ORGANIZATION_ROLE ( 'classification_officer' ) ;
#291 = DATE_TIME_ROLE ( 'classification_date' ) ;
#292 = APPROVAL_STATUS ( 'not_yet_approved' ) ;
#293 = APPROVAL_ROLE ( '' ) ;
#294 = FACE_BOUND ( 'NONE', #251, .T. ) ;
#295 = VECTOR ( 'NONE', #20, 1000.000000000000000 ) ;
#296 = CIRCLE ( 'NONE', #120, 2.500000000000002200 ) ;
#297 = LINE ( 'NONE', #19, #295 ) ;
#298 = LINE ( 'NONE', #58, #308 ) ;
#299 = LINE ( 'NONE', #84, #300 ) ;
#300 = VECTOR ( 'NONE', #82, 1000.000000000000000 ) ;
#301 = LINE ( 'NONE', #21, #305 ) ;
#302 = LINE ( 'NONE', #18, #304 ) ;
#303 = CIRCLE ( 'NONE', #118, 2.500000000000002200 ) ;
#304 = VECTOR ( 'NONE', #389, 1000.000000000000000 ) ;
#305 = VECTOR ( 'NONE', #150, 1000.000000000000000 ) ;
#306 = LINE ( 'NONE', #79, #310 ) ;
#307 = LINE ( 'NONE', #437, #314 ) ;
#308 = VECTOR ( 'NONE', #151, 1000.000000000000000 ) ;
#309 = LINE ( 'NONE', #154, #312 ) ;
#310 = VECTOR ( 'NONE', #153, 1000.000000000000000 ) ;
#311 = LINE ( 'NONE', #152, #316 ) ;
#312 = VECTOR ( 'NONE', #156, 1000.000000000000000 ) ;
#313 = LINE ( 'NONE', #155, #322 ) ;
#314 = VECTOR ( 'NONE', #157, 1000.000000000000000 ) ;
#315 = LINE ( 'NONE', #160, #318 ) ;
#316 = VECTOR ( 'NONE', #159, 1000.000000000000000 ) ;
#317 = LINE ( 'NONE', #162, #320 ) ;
#318 = VECTOR ( 'NONE', #161, 1000.000000000000000 ) ;
#319 = LINE ( 'NONE', #158, #328 ) ;
#320 = VECTOR ( 'NONE', #163, 1000.000000000000000 ) ;
#321 = LINE ( 'NONE', #165, #324 ) ;
#322 = VECTOR ( 'NONE', #164, 1000.000000000000000 ) ;
#323 = LINE ( 'NONE', #167, #326 ) ;
#324 = VECTOR ( 'NONE', #166, 1000.000000000000000 ) ;
#325 = CIRCLE ( 'NONE', #119, 2.500000000000002200 ) ;
#326 = VECTOR ( 'NONE', #169, 1000.000000000000000 ) ;
#327 = LINE ( 'NONE', #182, #346 ) ;
#328 = VECTOR ( 'NONE', #170, 1000.000000000000000 ) ;
#329 = CIRCLE ( 'NONE', #116, 2.500000000000002200 ) ;
#330 = LINE ( 'NONE', #168, #332 ) ;
#331 = LINE ( 'NONE', #176, #335 ) ;
#332 = VECTOR ( 'NONE', #175, 1000.000000000000000 ) ;
#333 = LINE ( 'NONE', #171, #334 ) ;
#334 = VECTOR ( 'NONE', #183, 1000.000000000000000 ) ;
#335 = VECTOR ( 'NONE', #181, 1000.000000000000000 ) ;
#336 = LINE ( 'NONE', #184, #338 ) ;
#337 = LINE ( 'NONE', #186, #340 ) ;
#338 = VECTOR ( 'NONE', #185, 1000.000000000000000 ) ;
#339 = LINE ( 'NONE', #188, #342 ) ;
#340 = VECTOR ( 'NONE', #187, 1000.000000000000000 ) ;
#341 = LINE ( 'NONE', #190, #344 ) ;
#342 = VECTOR ( 'NONE', #189, 1000.000000000000000 ) ;
#343 = VERTEX_POINT ( 'NONE', #191 ) ;
#344 = VECTOR ( 'NONE', #192, 1000.000000000000000 ) ;
#345 = LINE ( 'NONE', #194, #347 ) ;
#346 = VECTOR ( 'NONE', #193, 1000.000000000000000 ) ;
#347 = VECTOR ( 'NONE', #196, 1000.000000000000000 ) ;
#348 = SHAPE_DEFINITION_REPRESENTATION ( #65, #22 ) ;
#349 = VERTEX_POINT ( 'NONE', #197 ) ;
#350 = VERTEX_POINT ( 'NONE', #177 ) ;
#351 = VERTEX_POINT ( 'NONE', #198 ) ;
#352 = ORGANIZATION ( 'UNSPECIFIED', 'UNSPECIFIED', '' ) ;
#353 = PERSON_AND_ORGANIZATION ( #62, #352 ) ;
#354 = PERSON_AND_ORGANIZATION ( #62, #352 ) ;
#355 = APPROVAL_PERSON_ORGANIZATION ( #354, #14, #282 ) ;
#356 = COORDINATED_UNIVERSAL_TIME_OFFSET ( 4, 0, .AHEAD. ) ;
#357 = LOCAL_TIME ( 15, 28, 5.000000000000000000, #356 ) ;
#358 = CALENDAR_DATE ( 2012, 15, 11 ) ;
#359 = DATE_AND_TIME ( #358, #357 ) ;
#360 = APPROVAL_DATE_TIME ( #359, #14 ) ;
#361 = PERSON_AND_ORGANIZATION ( #62, #352 ) ;
#362 = COORDINATED_UNIVERSAL_TIME_OFFSET ( 4, 0, .AHEAD. ) ;
#363 = LOCAL_TIME ( 15, 28, 5.000000000000000000, #362 ) ;
#364 = CALENDAR_DATE ( 2012, 15, 11 ) ;
#365 = DATE_AND_TIME ( #364, #363 ) ;
#366 = PERSON_AND_ORGANIZATION ( #62, #352 ) ;
#367 = APPROVAL_PERSON_ORGANIZATION ( #366, #8, #286 ) ;
#368 = COORDINATED_UNIVERSAL_TIME_OFFSET ( 4, 0, .AHEAD. ) ;
#369 = LOCAL_TIME ( 15, 28, 5.000000000000000000, #368 ) ;
#370 = CALENDAR_DATE ( 2012, 15, 11 ) ;
#371 = DATE_AND_TIME ( #370, #369 ) ;
#372 = APPROVAL_DATE_TIME ( #371, #8 ) ;
#373 = PERSON_AND_ORGANIZATION ( #62, #352 ) ;
#374 = PERSON_AND_ORGANIZATION ( #62, #352 ) ;
#375 = PERSON_AND_ORGANIZATION ( #62, #352 ) ;
#376 = COORDINATED_UNIVERSAL_TIME_OFFSET ( 4, 0, .AHEAD. ) ;
#377 = LOCAL_TIME ( 15, 28, 5.000000000000000000, #376 ) ;
#378 = CALENDAR_DATE ( 2012, 15, 11 ) ;
#379 = DATE_AND_TIME ( #378, #377 ) ;
#380 = PERSON_AND_ORGANIZATION ( #62, #352 ) ;
#381 = APPROVAL_PERSON_ORGANIZATION ( #380, #5, #293 ) ;
#382 = COORDINATED_UNIVERSAL_TIME_OFFSET ( 4, 0, .AHEAD. ) ;
#383 = LOCAL_TIME ( 15, 28, 5.000000000000000000, #382 ) ;
#384 = CALENDAR_DATE ( 2012, 15, 11 ) ;
#385 = DATE_AND_TIME ( #384, #383 ) ;
#386 = APPROVAL_DATE_TIME ( #385, #5 ) ;
#387 = CARTESIAN_POINT ( 'NONE',  ( 201.5999999999999900, -14.00000000000000000, 345.0000000000000000 ) ) ;
#388 = CARTESIAN_POINT ( 'NONE',  ( 201.0000000000000000, -14.00000000000000000, 0.0000000000000000000 ) ) ;
#389 = DIRECTION ( 'NONE',  ( -0.0000000000000000000, -0.0000000000000000000, -1.000000000000000000 ) ) ;
#390 = PLANE ( 'NONE',  #130 ) ;
#391 = PLANE ( 'NONE',  #88 ) ;
#392 = PLANE ( 'NONE',  #135 ) ;
#393 = DIRECTION ( 'NONE',  ( -1.000000000000000000, 0.0000000000000000000, 0.0000000000000000000 ) ) ;
#394 = DIRECTION ( 'NONE',  ( 0.0000000000000000000, 0.0000000000000000000, 1.000000000000000000 ) ) ;
#395 = CARTESIAN_POINT ( 'NONE',  ( 201.5999999999999900, 0.5999999999999999800, 0.0000000000000000000 ) ) ;
#396 = CARTESIAN_POINT ( 'NONE',  ( 201.0000000000000000, -14.00000000000000000, 345.0000000000000000 ) ) ;
#397 = CARTESIAN_POINT ( 'NONE',  ( 201.5999999999999900, -14.00000000000000000, 0.0000000000000000000 ) ) ;
#398 = CARTESIAN_POINT ( 'NONE',  ( -201.0000000000000000, 0.0000000000000000000, 0.0000000000000000000 ) ) ;
#399 = CARTESIAN_POINT ( 'NONE',  ( 201.0000000000000000, 0.0000000000000000000, 0.0000000000000000000 ) ) ;
#400 = CARTESIAN_POINT ( 'NONE',  ( 201.0000000000000000, 0.0000000000000000000, 345.0000000000000000 ) ) ;
#401 = CARTESIAN_POINT ( 'NONE',  ( -201.5999999999999900, -14.00000000000000000, 0.0000000000000000000 ) ) ;
#402 = CARTESIAN_POINT ( 'NONE',  ( -201.5999999999999900, 0.5999999999999999800, 0.0000000000000000000 ) ) ;
#403 = PLANE ( 'NONE',  #92 ) ;
#404 = DIRECTION ( 'NONE',  ( -0.0000000000000000000, 1.000000000000000000, -0.0000000000000000000 ) ) ;
#405 = DIRECTION ( 'NONE',  ( -0.0000000000000000000, 0.0000000000000000000, -1.000000000000000000 ) ) ;
#406 = CARTESIAN_POINT ( 'NONE',  ( 0.0000000000000000000, 0.0000000000000000000, 345.0000000000000000 ) ) ;
#407 = DIRECTION ( 'NONE',  ( 0.0000000000000000000, -0.0000000000000000000, 1.000000000000000000 ) ) ;
#408 = DIRECTION ( 'NONE',  ( 0.0000000000000000000, 1.000000000000000000, 0.0000000000000000000 ) ) ;
#409 = CARTESIAN_POINT ( 'NONE',  ( -201.0000000000000000, 0.0000000000000000000, 345.0000000000000000 ) ) ;
#410 = DIRECTION ( 'NONE',  ( 0.0000000000000000000, 0.0000000000000000000, 1.000000000000000000 ) ) ;
#411 = PLANE ( 'NONE',  #95 ) ;
#412 = DIRECTION ( 'NONE',  ( 0.0000000000000000000, 0.0000000000000000000, 1.000000000000000000 ) ) ;
#413 = DIRECTION ( 'NONE',  ( -0.0000000000000000000, 0.0000000000000000000, -1.000000000000000000 ) ) ;
#414 = DIRECTION ( 'NONE',  ( -1.000000000000000000, 0.0000000000000000000, 0.0000000000000000000 ) ) ;
#415 = CARTESIAN_POINT ( 'NONE',  ( 2.653208575337321500E-015, -14.00099999999999900, 330.0000000000000000 ) ) ;
#416 = CARTESIAN_POINT ( 'NONE',  ( 0.0000000000000000000, 0.0000000000000000000, 0.0000000000000000000 ) ) ;
#417 = DIRECTION ( 'NONE',  ( -0.0000000000000000000, 1.000000000000000000, -0.0000000000000000000 ) ) ;
#418 = CARTESIAN_POINT ( 'NONE',  ( 201.5999999999999900, 0.5999999999999999800, 345.0000000000000000 ) ) ;
#419 = CARTESIAN_POINT ( 'NONE',  ( -201.0000000000000000, -14.00000000000000000, 0.0000000000000000000 ) ) ;
#420 = CARTESIAN_POINT ( 'NONE',  ( -201.5999999999999900, 0.5999999999999999800, 345.0000000000000000 ) ) ;
#421 = CARTESIAN_POINT ( 'NONE',  ( -201.5999999999999900, -14.00000000000000000, 345.0000000000000000 ) ) ;
#422 = CARTESIAN_POINT ( 'NONE',  ( -201.0000000000000000, -14.00000000000000000, 345.0000000000000000 ) ) ;
#423 = CARTESIAN_POINT ( 'NONE',  ( -201.0000000000000000, 0.0000000000000000000, 345.0000000000000000 ) ) ;
#424 = PLANE ( 'NONE',  #93 ) ;
#425 = DIRECTION ( 'NONE',  ( -0.0000000000000000000, 0.0000000000000000000, -1.000000000000000000 ) ) ;
#426 = PLANE ( 'NONE',  #89 ) ;
#427 = CARTESIAN_POINT ( 'NONE',  ( -201.0000000000000000, -14.00000000000000000, 345.0000000000000000 ) ) ;
#428 = CARTESIAN_POINT ( 'NONE',  ( -201.5999999999999900, 0.0000000000000000000, 345.0000000000000000 ) ) ;
#429 = DIRECTION ( 'NONE',  ( 1.000000000000000000, 0.0000000000000000000, -0.0000000000000000000 ) ) ;
#430 = CARTESIAN_POINT ( 'NONE',  ( 201.5999999999999900, 0.0000000000000000000, 345.0000000000000000 ) ) ;
#431 = PLANE ( 'NONE',  #90 ) ;
#432 = CARTESIAN_POINT ( 'NONE',  ( 1.734723475976807100E-015, -14.00099999999999900, 14.99999999999999300 ) ) ;
#433 = DIRECTION ( 'NONE',  ( -1.000000000000000000, 0.0000000000000000000, 0.0000000000000000000 ) ) ;
#434 = CARTESIAN_POINT ( 'NONE',  ( -201.0000000000000000, 0.0000000000000000000, 345.0000000000000000 ) ) ;
#435 = DIRECTION ( 'NONE',  ( 0.0000000000000000000, -1.000000000000000000, 0.0000000000000000000 ) ) ;
#436 = DIRECTION ( 'NONE',  ( 0.0000000000000000000, -0.0000000000000000000, -1.000000000000000000 ) ) ;
#437 = CARTESIAN_POINT ( 'NONE',  ( -201.5999999999999900, -14.00000000000000000, 345.0000000000000000 ) ) ;
ENDSEC;
END-ISO-10303-21;
