ISO-10303-21;
HEADER;
FILE_DESCRIPTION (( 'STEP AP203' ),
    '1' );
FILE_NAME ('Ñîåäèíèòåëüíàÿ íàêëàäêà CGB_37356.STEP',
    '2012-11-09T08:54:44',
    ( 'Àñååâ' ),
    ( '' ),
    'SwSTEP 2.0',
    'SolidWorks 2012',
    '' );
FILE_SCHEMA (( 'CONFIG_CONTROL_DESIGN' ));
ENDSEC;

DATA;
#1 = PERSON_AND_ORGANIZATION ( #191, #54 ) ;
#2 = COORDINATED_UNIVERSAL_TIME_OFFSET ( 4, 0, .AHEAD. ) ;
#3 = LOCAL_TIME ( 12, 54, 44.00000000000000000, #2 ) ;
#4 = CALENDAR_DATE ( 2012, 9, 11 ) ;
#5 = DATE_AND_TIME ( #4, #3 ) ;
#6 = PERSON_AND_ORGANIZATION ( #191, #54 ) ;
#7 = APPROVAL_PERSON_ORGANIZATION ( #6, #79, #288 ) ;
#8 = COORDINATED_UNIVERSAL_TIME_OFFSET ( 4, 0, .AHEAD. ) ;
#9 = LOCAL_TIME ( 12, 54, 44.00000000000000000, #8 ) ;
#10 = CALENDAR_DATE ( 2012, 9, 11 ) ;
#11 = DATE_AND_TIME ( #10, #9 ) ;
#12 = APPROVAL_DATE_TIME ( #11, #79 ) ;
#13 = VECTOR ( 'NONE', #203, 1000.000000000000000 ) ;
#14 = UNCERTAINTY_MEASURE_WITH_UNIT (LENGTH_MEASURE( 1.000000000000000100E-005 ), #301, 'distance_accuracy_value', 'NONE');
#15 = ADVANCED_BREP_SHAPE_REPRESENTATION ( 'Tþõôøýøªõû¹ýð  ýðúûðôúð CGB_37356', ( #16, #120 ), #104 ) ;
#16 = MANIFOLD_SOLID_BREP ( 'Çåðêàëüíîå îòðàæåíèå1', #125 ) ;
#17 = VECTOR ( 'NONE', #222, 1000.000000000000000 ) ;
#18 = FACE_OUTER_BOUND ( 'NONE', #159, .T. ) ;
#19 = LINE ( 'NONE', #209, #20 ) ;
#20 = VECTOR ( 'NONE', #224, 1000.000000000000000 ) ;
#21 = LINE ( 'NONE', #204, #24 ) ;
#22 = CIRCLE ( 'NONE', #88, 2.500000000000002200 ) ;
#23 = LINE ( 'NONE', #205, #25 ) ;
#24 = VECTOR ( 'NONE', #257, 1000.000000000000000 ) ;
#25 = VECTOR ( 'NONE', #284, 1000.000000000000000 ) ;
#26 = CIRCLE ( 'NONE', #105, 2.499999999999998700 ) ;
#27 = LINE ( 'NONE', #221, #29 ) ;
#28 = LINE ( 'NONE', #279, #30 ) ;
#29 = VECTOR ( 'NONE', #303, 1000.000000000000000 ) ;
#30 = VECTOR ( 'NONE', #226, 1000.000000000000000 ) ;
#31 = CIRCLE ( 'NONE', #75, 2.500000000000000000 ) ;
#32 = FACE_BOUND ( 'NONE', #186, .T. ) ;
#33 = LINE ( 'NONE', #290, #35 ) ;
#34 = FACE_OUTER_BOUND ( 'NONE', #152, .T. ) ;
#35 = VECTOR ( 'NONE', #235, 1000.000000000000000 ) ;
#36 = FACE_BOUND ( 'NONE', #158, .T. ) ;
#37 = FACE_OUTER_BOUND ( 'NONE', #160, .T. ) ;
#38 = FACE_OUTER_BOUND ( 'NONE', #188, .T. ) ;
#39 = FACE_OUTER_BOUND ( 'NONE', #165, .T. ) ;
#40 = FACE_BOUND ( 'NONE', #162, .T. ) ;
#41 = FACE_OUTER_BOUND ( 'NONE', #187, .T. ) ;
#42 = FACE_OUTER_BOUND ( 'NONE', #166, .T. ) ;
#43 = FACE_BOUND ( 'NONE', #189, .T. ) ;
#44 = CYLINDRICAL_SURFACE ( 'NONE', #99, 2.500000000000000000 ) ;
#45 = FACE_OUTER_BOUND ( 'NONE', #157, .T. ) ;
#46 = FACE_OUTER_BOUND ( 'NONE', #163, .T. ) ;
#47 = CYLINDRICAL_SURFACE ( 'NONE', #101, 2.500000000000000000 ) ;
#48 = FACE_OUTER_BOUND ( 'NONE', #155, .T. ) ;
#49 = VERTEX_POINT ( 'NONE', #293 ) ;
#50 = VERTEX_POINT ( 'NONE', #287 ) ;
#51 = VERTEX_POINT ( 'NONE', #291 ) ;
#52 = VERTEX_POINT ( 'NONE', #267 ) ;
#53 = SHAPE_DEFINITION_REPRESENTATION ( #193, #15 ) ;
#54 = ORGANIZATION ( 'UNSPECIFIED', 'UNSPECIFIED', '' ) ;
#55 = PERSON_AND_ORGANIZATION ( #191, #54 ) ;
#56 = PERSON_AND_ORGANIZATION ( #191, #54 ) ;
#57 = APPROVAL_PERSON_ORGANIZATION ( #56, #117, #300 ) ;
#58 = COORDINATED_UNIVERSAL_TIME_OFFSET ( 4, 0, .AHEAD. ) ;
#59 = LOCAL_TIME ( 12, 54, 44.00000000000000000, #58 ) ;
#60 = CALENDAR_DATE ( 2012, 9, 11 ) ;
#61 = DATE_AND_TIME ( #60, #59 ) ;
#62 = APPROVAL_DATE_TIME ( #61, #117 ) ;
#63 = PERSON_AND_ORGANIZATION ( #191, #54 ) ;
#64 = COORDINATED_UNIVERSAL_TIME_OFFSET ( 4, 0, .AHEAD. ) ;
#65 = LOCAL_TIME ( 12, 54, 44.00000000000000000, #64 ) ;
#66 = CALENDAR_DATE ( 2012, 9, 11 ) ;
#67 = DATE_AND_TIME ( #66, #65 ) ;
#68 = PERSON_AND_ORGANIZATION ( #191, #54 ) ;
#69 = APPROVAL_PERSON_ORGANIZATION ( #68, #106, #230 ) ;
#70 = COORDINATED_UNIVERSAL_TIME_OFFSET ( 4, 0, .AHEAD. ) ;
#71 = LOCAL_TIME ( 12, 54, 44.00000000000000000, #70 ) ;
#72 = CALENDAR_DATE ( 2012, 9, 11 ) ;
#73 = DATE_AND_TIME ( #72, #71 ) ;
#74 = APPROVAL_DATE_TIME ( #73, #106 ) ;
#75 = AXIS2_PLACEMENT_3D ( 'NONE', #302, #227, #234 ) ;
#76 = EDGE_CURVE ( 'NONE', #176, #130, #168, .T. ) ;
#77 = PRODUCT_RELATED_PRODUCT_CATEGORY ( 'detail', '', ( #192 ) ) ;
#78 = CC_DESIGN_SECURITY_CLASSIFICATION ( #108, ( #107 ) ) ;
#79 = APPROVAL ( #292, 'UNSPECIFIED' ) ;
#80 = CC_DESIGN_APPROVAL ( #79, ( #108 ) ) ;
#81 = EDGE_CURVE ( 'NONE', #49, #49, #129, .T. ) ;
#82 = EDGE_CURVE ( 'NONE', #124, #126, #164, .T. ) ;
#83 = EDGE_CURVE ( 'NONE', #177, #176, #161, .T. ) ;
#84 = EDGE_CURVE ( 'NONE', #126, #173, #167, .T. ) ;
#85 = AXIS2_PLACEMENT_3D ( 'NONE', #242, #244, #245 ) ;
#86 = AXIS2_PLACEMENT_3D ( 'NONE', #246, #243, #250 ) ;
#87 = AXIS2_PLACEMENT_3D ( 'NONE', #249, #254, #255 ) ;
#88 = AXIS2_PLACEMENT_3D ( 'NONE', #210, #207, #285 ) ;
#89 = AXIS2_PLACEMENT_3D ( 'NONE', #212, #213, #216 ) ;
#90 = EDGE_CURVE ( 'NONE', #132, #127, #190, .T. ) ;
#91 = EDGE_CURVE ( 'NONE', #173, #130, #174, .T. ) ;
#92 = EDGE_CURVE ( 'NONE', #132, #124, #19, .T. ) ;
#93 = EDGE_CURVE ( 'NONE', #50, #50, #22, .T. ) ;
#94 = EDGE_CURVE ( 'NONE', #127, #177, #23, .T. ) ;
#95 = EDGE_CURVE ( 'NONE', #124, #177, #21, .T. ) ;
#96 = EDGE_CURVE ( 'NONE', #51, #51, #26, .T. ) ;
#97 = EDGE_CURVE ( 'NONE', #126, #176, #28, .T. ) ;
#98 = EDGE_CURVE ( 'NONE', #130, #127, #27, .T. ) ;
#99 = AXIS2_PLACEMENT_3D ( 'NONE', #256, #253, #247 ) ;
#100 = EDGE_CURVE ( 'NONE', #52, #52, #31, .T. ) ;
#101 = AXIS2_PLACEMENT_3D ( 'NONE', #273, #260, #274 ) ;
#102 = AXIS2_PLACEMENT_3D ( 'NONE', #271, #272, #262 ) ;
#103 = AXIS2_PLACEMENT_3D ( 'NONE', #264, #259, #258 ) ;
#104 =( GEOMETRIC_REPRESENTATION_CONTEXT ( 3 ) GLOBAL_UNCERTAINTY_ASSIGNED_CONTEXT ( ( #14 ) ) GLOBAL_UNIT_ASSIGNED_CONTEXT ( ( #301, #297, #261 ) ) REPRESENTATION_CONTEXT ( 'NONE', 'WORKASPACE' ) );
#105 = AXIS2_PLACEMENT_3D ( 'NONE', #296, #278, #225 ) ;
#106 = APPROVAL ( #280, 'UNSPECIFIED' ) ;
#107 = PRODUCT_DEFINITION_FORMATION_WITH_SPECIFIED_SOURCE ( 'ANY', '', #192, .NOT_KNOWN. ) ;
#108 = SECURITY_CLASSIFICATION ( '', '', #283 ) ;
#109 = CC_DESIGN_PERSON_AND_ORGANIZATION_ASSIGNMENT ( #123, #281, ( #107 ) ) ;
#110 = CC_DESIGN_PERSON_AND_ORGANIZATION_ASSIGNMENT ( #170, #275, ( #107 ) ) ;
#111 = CC_DESIGN_APPROVAL ( #106, ( #107 ) ) ;
#112 = PRODUCT_DEFINITION ( 'UNKNOWN', '', #107, #194 ) ;
#113 = CC_DESIGN_PERSON_AND_ORGANIZATION_ASSIGNMENT ( #55, #228, ( #192 ) ) ;
#114 = CC_DESIGN_DATE_AND_TIME_ASSIGNMENT ( #67, #233, ( #112 ) ) ;
#115 = CC_DESIGN_PERSON_AND_ORGANIZATION_ASSIGNMENT ( #63, #232, ( #112 ) ) ;
#116 = CC_DESIGN_APPROVAL ( #117, ( #112 ) ) ;
#117 = APPROVAL ( #263, 'UNSPECIFIED' ) ;
#118 = CC_DESIGN_DATE_AND_TIME_ASSIGNMENT ( #5, #294, ( #108 ) ) ;
#119 = CC_DESIGN_PERSON_AND_ORGANIZATION_ASSIGNMENT ( #1, #286, ( #108 ) ) ;
#120 = AXIS2_PLACEMENT_3D ( 'NONE', #289, #231, #305 ) ;
#121 = AXIS2_PLACEMENT_3D ( 'NONE', #266, #282, #277 ) ;
#122 = EDGE_CURVE ( 'NONE', #173, #132, #33, .T. ) ;
#123 = PERSON_AND_ORGANIZATION ( #191, #54 ) ;
#124 = VERTEX_POINT ( 'NONE', #276 ) ;
#125 = CLOSED_SHELL ( 'NONE', ( #200, #196, #195, #201, #202, #197, #198, #199 ) ) ;
#126 = VERTEX_POINT ( 'NONE', #299 ) ;
#127 = VERTEX_POINT ( 'NONE', #237 ) ;
#128 = ORIENTED_EDGE ( 'NONE', *, *, #94, .F. ) ;
#129 = CIRCLE ( 'NONE', #89, 2.500000000000000000 ) ;
#130 = VERTEX_POINT ( 'NONE', #251 ) ;
#131 = ORIENTED_EDGE ( 'NONE', *, *, #92, .T. ) ;
#132 = VERTEX_POINT ( 'NONE', #236 ) ;
#133 = ORIENTED_EDGE ( 'NONE', *, *, #100, .T. ) ;
#134 = ORIENTED_EDGE ( 'NONE', *, *, #83, .F. ) ;
#135 = ORIENTED_EDGE ( 'NONE', *, *, #76, .F. ) ;
#136 = ORIENTED_EDGE ( 'NONE', *, *, #97, .F. ) ;
#137 = ORIENTED_EDGE ( 'NONE', *, *, #90, .T. ) ;
#138 = ORIENTED_EDGE ( 'NONE', *, *, #91, .T. ) ;
#139 = ORIENTED_EDGE ( 'NONE', *, *, #122, .T. ) ;
#140 = ORIENTED_EDGE ( 'NONE', *, *, #96, .F. ) ;
#141 = ORIENTED_EDGE ( 'NONE', *, *, #91, .F. ) ;
#142 = ORIENTED_EDGE ( 'NONE', *, *, #122, .F. ) ;
#143 = ORIENTED_EDGE ( 'NONE', *, *, #93, .T. ) ;
#144 = ORIENTED_EDGE ( 'NONE', *, *, #97, .T. ) ;
#145 = ORIENTED_EDGE ( 'NONE', *, *, #92, .F. ) ;
#146 = ORIENTED_EDGE ( 'NONE', *, *, #94, .T. ) ;
#147 = ORIENTED_EDGE ( 'NONE', *, *, #83, .T. ) ;
#148 = ORIENTED_EDGE ( 'NONE', *, *, #98, .T. ) ;
#149 = ORIENTED_EDGE ( 'NONE', *, *, #95, .F. ) ;
#150 = ORIENTED_EDGE ( 'NONE', *, *, #100, .F. ) ;
#151 = ORIENTED_EDGE ( 'NONE', *, *, #96, .T. ) ;
#152 = EDGE_LOOP ( 'NONE', ( #146, #147, #182, #148 ) ) ;
#153 = ORIENTED_EDGE ( 'NONE', *, *, #81, .T. ) ;
#154 = ORIENTED_EDGE ( 'NONE', *, *, #98, .F. ) ;
#155 = EDGE_LOOP ( 'NONE', ( #128, #178, #131, #179 ) ) ;
#156 = ORIENTED_EDGE ( 'NONE', *, *, #82, .F. ) ;
#157 = EDGE_LOOP ( 'NONE', ( #133 ) ) ;
#158 = EDGE_LOOP ( 'NONE', ( #150 ) ) ;
#159 = EDGE_LOOP ( 'NONE', ( #140 ) ) ;
#160 = EDGE_LOOP ( 'NONE', ( #154, #141, #139, #137 ) ) ;
#161 = LINE ( 'NONE', #214, #171 ) ;
#162 = EDGE_LOOP ( 'NONE', ( #151 ) ) ;
#163 = EDGE_LOOP ( 'NONE', ( #145, #142, #181, #156 ) ) ;
#164 = LINE ( 'NONE', #215, #172 ) ;
#165 = EDGE_LOOP ( 'NONE', ( #143 ) ) ;
#166 = EDGE_LOOP ( 'NONE', ( #183 ) ) ;
#167 = LINE ( 'NONE', #208, #175 ) ;
#168 = LINE ( 'NONE', #219, #169 ) ;
#169 = VECTOR ( 'NONE', #223, 1000.000000000000000 ) ;
#170 = PERSON_AND_ORGANIZATION ( #191, #54 ) ;
#171 = VECTOR ( 'NONE', #218, 1000.000000000000000 ) ;
#172 = VECTOR ( 'NONE', #220, 1000.000000000000000 ) ;
#173 = VERTEX_POINT ( 'NONE', #238 ) ;
#174 = LINE ( 'NONE', #206, #17 ) ;
#175 = VECTOR ( 'NONE', #211, 1000.000000000000000 ) ;
#176 = VERTEX_POINT ( 'NONE', #240 ) ;
#177 = VERTEX_POINT ( 'NONE', #241 ) ;
#178 = ORIENTED_EDGE ( 'NONE', *, *, #90, .F. ) ;
#179 = ORIENTED_EDGE ( 'NONE', *, *, #95, .T. ) ;
#180 = ORIENTED_EDGE ( 'NONE', *, *, #84, .T. ) ;
#181 = ORIENTED_EDGE ( 'NONE', *, *, #84, .F. ) ;
#182 = ORIENTED_EDGE ( 'NONE', *, *, #76, .T. ) ;
#183 = ORIENTED_EDGE ( 'NONE', *, *, #81, .F. ) ;
#184 = ORIENTED_EDGE ( 'NONE', *, *, #93, .F. ) ;
#185 = ORIENTED_EDGE ( 'NONE', *, *, #82, .T. ) ;
#186 = EDGE_LOOP ( 'NONE', ( #153 ) ) ;
#187 = EDGE_LOOP ( 'NONE', ( #134, #149, #185, #144 ) ) ;
#188 = EDGE_LOOP ( 'NONE', ( #135, #136, #180, #138 ) ) ;
#189 = EDGE_LOOP ( 'NONE', ( #184 ) ) ;
#190 = LINE ( 'NONE', #217, #13 ) ;
#191 = PERSON ( 'UNSPECIFIED', 'UNSPECIFIED', 'UNSPECIFIED', ('UNSPECIFIED'), ('UNSPECIFIED'), ('UNSPECIFIED') ) ;
#192 = PRODUCT ( 'Ñîåäèíèòåëüíàÿ íàêëàäêà CGB_37356', 'Ñîåäèíèòåëüíàÿ íàêëàäêà CGB_37356', '', ( #229 ) ) ;
#193 = PRODUCT_DEFINITION_SHAPE ( 'NONE', 'NONE',  #112 ) ;
#194 = DESIGN_CONTEXT ( 'detailed design', #268, 'design' ) ;
#195 = ADVANCED_FACE ( 'NONE', ( #37 ), #239, .T. ) ;
#196 = ADVANCED_FACE ( 'NONE', ( #36, #38, #32 ), #248, .T. ) ;
#197 = ADVANCED_FACE ( 'NONE', ( #34 ), #252, .T. ) ;
#198 = ADVANCED_FACE ( 'NONE', ( #18, #42 ), #44, .F. ) ;
#199 = ADVANCED_FACE ( 'NONE', ( #39, #45 ), #47, .F. ) ;
#200 = ADVANCED_FACE ( 'NONE', ( #43, #48, #40 ), #265, .T. ) ;
#201 = ADVANCED_FACE ( 'NONE', ( #41 ), #269, .T. ) ;
#202 = ADVANCED_FACE ( 'NONE', ( #46 ), #298, .F. ) ;
#203 = DIRECTION ( 'NONE',  ( 0.0000000000000000000, 0.0000000000000000000, 1.000000000000000000 ) ) ;
#204 = CARTESIAN_POINT ( 'NONE',  ( 197.0000000000000000, 0.0000000000000000000, -65.00000000000000000 ) ) ;
#205 = CARTESIAN_POINT ( 'NONE',  ( -197.0000000000000000, 0.0000000000000000000, 0.0000000000000000000 ) ) ;
#206 = CARTESIAN_POINT ( 'NONE',  ( -197.0000000000000000, 0.8000000000000016000, -65.00000000000000000 ) ) ;
#207 = DIRECTION ( 'NONE',  ( 0.0000000000000000000, -1.000000000000000000, 0.0000000000000000000 ) ) ;
#208 = CARTESIAN_POINT ( 'NONE',  ( -197.0000000000000000, 0.8000000000000016000, -65.00000000000000000 ) ) ;
#209 = CARTESIAN_POINT ( 'NONE',  ( -197.0000000000000000, 0.0000000000000000000, -65.00000000000000000 ) ) ;
#210 = CARTESIAN_POINT ( 'NONE',  ( -3.885343218030143000E-014, 0.0000000000000000000, -47.50000000000000000 ) ) ;
#211 = DIRECTION ( 'NONE',  ( -1.000000000000000000, 3.852495029136310500E-018, -0.0000000000000000000 ) ) ;
#212 = CARTESIAN_POINT ( 'NONE',  ( -3.884930188631100600E-014, 0.8000000000000008200, -17.50000000000000000 ) ) ;
#213 = DIRECTION ( 'NONE',  ( -5.162867488026211000E-018, -1.000000000000000000, 0.0000000000000000000 ) ) ;
#214 = CARTESIAN_POINT ( 'NONE',  ( 197.0000000000000000, 0.0000000000000000000, 0.0000000000000000000 ) ) ;
#215 = CARTESIAN_POINT ( 'NONE',  ( 197.0000000000000000, 0.0000000000000000000, -65.00000000000000000 ) ) ;
#216 = DIRECTION ( 'NONE',  ( 1.000000000000000000, 0.0000000000000000000, 0.0000000000000000000 ) ) ;
#217 = CARTESIAN_POINT ( 'NONE',  ( -197.0000000000000000, 0.0000000000000000000, -65.00000000000000000 ) ) ;
#218 = DIRECTION ( 'NONE',  ( 0.0000000000000000000, 1.000000000000000000, 0.0000000000000000000 ) ) ;
#219 = CARTESIAN_POINT ( 'NONE',  ( -197.0000000000000000, 0.8000000000000016000, 0.0000000000000000000 ) ) ;
#220 = DIRECTION ( 'NONE',  ( 0.0000000000000000000, 1.000000000000000000, 0.0000000000000000000 ) ) ;
#221 = CARTESIAN_POINT ( 'NONE',  ( -197.0000000000000000, 0.0000000000000000000, 0.0000000000000000000 ) ) ;
#222 = DIRECTION ( 'NONE',  ( 0.0000000000000000000, 0.0000000000000000000, 1.000000000000000000 ) ) ;
#223 = DIRECTION ( 'NONE',  ( -1.000000000000000000, 3.852495029136310500E-018, -0.0000000000000000000 ) ) ;
#224 = DIRECTION ( 'NONE',  ( 1.000000000000000000, 0.0000000000000000000, 0.0000000000000000000 ) ) ;
#225 = DIRECTION ( 'NONE',  ( 0.0000000000000000000, 0.0000000000000000000, -1.000000000000000000 ) ) ;
#226 = DIRECTION ( 'NONE',  ( 0.0000000000000000000, 0.0000000000000000000, 1.000000000000000000 ) ) ;
#227 = DIRECTION ( 'NONE',  ( 5.162867488026211000E-018, 1.000000000000000000, 0.0000000000000000000 ) ) ;
#228 = PERSON_AND_ORGANIZATION_ROLE ( 'design_owner' ) ;
#229 = MECHANICAL_CONTEXT ( 'NONE', #270, 'mechanical' ) ;
#230 = APPROVAL_ROLE ( '' ) ;
#231 = DIRECTION ( 'NONE',  ( 0.0000000000000000000, 0.0000000000000000000, 1.000000000000000000 ) ) ;
#232 = PERSON_AND_ORGANIZATION_ROLE ( 'creator' ) ;
#233 = DATE_TIME_ROLE ( 'creation_date' ) ;
#234 = DIRECTION ( 'NONE',  ( 1.000000000000000000, 0.0000000000000000000, 0.0000000000000000000 ) ) ;
#235 = DIRECTION ( 'NONE',  ( -0.0000000000000000000, -1.000000000000000000, -0.0000000000000000000 ) ) ;
#236 = CARTESIAN_POINT ( 'NONE',  ( -197.0000000000000000, 0.0000000000000000000, -65.00000000000000000 ) ) ;
#237 = CARTESIAN_POINT ( 'NONE',  ( -197.0000000000000000, 0.0000000000000000000, 0.0000000000000000000 ) ) ;
#238 = CARTESIAN_POINT ( 'NONE',  ( -197.0000000000000000, 0.8000000000000016000, -65.00000000000000000 ) ) ;
#239 = PLANE ( 'NONE',  #85 ) ;
#240 = CARTESIAN_POINT ( 'NONE',  ( 197.0000000000000000, 0.8000000000000000400, 0.0000000000000000000 ) ) ;
#241 = CARTESIAN_POINT ( 'NONE',  ( 197.0000000000000000, 0.0000000000000000000, 0.0000000000000000000 ) ) ;
#242 = CARTESIAN_POINT ( 'NONE',  ( -197.0000000000000000, 0.0000000000000000000, -65.00000000000000000 ) ) ;
#243 = DIRECTION ( 'NONE',  ( 3.852495029136310500E-018, 1.000000000000000000, -0.0000000000000000000 ) ) ;
#244 = DIRECTION ( 'NONE',  ( -1.000000000000000000, 0.0000000000000000000, 0.0000000000000000000 ) ) ;
#245 = DIRECTION ( 'NONE',  ( 0.0000000000000000000, 0.0000000000000000000, 1.000000000000000000 ) ) ;
#246 = CARTESIAN_POINT ( 'NONE',  ( -197.0000000000000000, 0.8000000000000016000, -65.00000000000000000 ) ) ;
#247 = DIRECTION ( 'NONE',  ( -1.000000000000000000, 0.0000000000000000000, 0.0000000000000000000 ) ) ;
#248 = PLANE ( 'NONE',  #86 ) ;
#249 = CARTESIAN_POINT ( 'NONE',  ( 197.0000000000000000, 0.0000000000000000000, 0.0000000000000000000 ) ) ;
#250 = DIRECTION ( 'NONE',  ( -1.000000000000000000, 3.852495029136310500E-018, 0.0000000000000000000 ) ) ;
#251 = CARTESIAN_POINT ( 'NONE',  ( -197.0000000000000000, 0.8000000000000016000, 0.0000000000000000000 ) ) ;
#252 = PLANE ( 'NONE',  #87 ) ;
#253 = DIRECTION ( 'NONE',  ( 5.162867488026211000E-018, 1.000000000000000000, 0.0000000000000000000 ) ) ;
#254 = DIRECTION ( 'NONE',  ( 0.0000000000000000000, 0.0000000000000000000, 1.000000000000000000 ) ) ;
#255 = DIRECTION ( 'NONE',  ( 1.000000000000000000, 0.0000000000000000000, -0.0000000000000000000 ) ) ;
#256 = CARTESIAN_POINT ( 'NONE',  ( -3.890093056119127500E-014, -9.199999999999999300, -17.50000000000000000 ) ) ;
#257 = DIRECTION ( 'NONE',  ( 0.0000000000000000000, 0.0000000000000000000, 1.000000000000000000 ) ) ;
#258 = DIRECTION ( 'NONE',  ( 0.0000000000000000000, 0.0000000000000000000, -1.000000000000000000 ) ) ;
#259 = DIRECTION ( 'NONE',  ( 1.000000000000000000, 0.0000000000000000000, 0.0000000000000000000 ) ) ;
#260 = DIRECTION ( 'NONE',  ( 5.162867488026211000E-018, 1.000000000000000000, 0.0000000000000000000 ) ) ;
#261 =( NAMED_UNIT ( * ) SI_UNIT ( $, .STERADIAN. ) SOLID_ANGLE_UNIT ( ) );
#262 = DIRECTION ( 'NONE',  ( 0.0000000000000000000, -0.0000000000000000000, -1.000000000000000000 ) ) ;
#263 = APPROVAL_STATUS ( 'not_yet_approved' ) ;
#264 = CARTESIAN_POINT ( 'NONE',  ( 197.0000000000000000, 0.0000000000000000000, -65.00000000000000000 ) ) ;
#265 = PLANE ( 'NONE',  #102 ) ;
#266 = CARTESIAN_POINT ( 'NONE',  ( 197.0000000000000000, 0.0000000000000000000, -65.00000000000000000 ) ) ;
#267 = CARTESIAN_POINT ( 'NONE',  ( 2.499999999999960900, 0.8000000000000008200, -47.50000000000000000 ) ) ;
#268 = APPLICATION_CONTEXT ( 'configuration controlled 3d designs of mechanical parts and assemblies' ) ;
#269 = PLANE ( 'NONE',  #103 ) ;
#270 = APPLICATION_CONTEXT ( 'configuration controlled 3d designs of mechanical parts and assemblies' ) ;
#271 = CARTESIAN_POINT ( 'NONE',  ( -197.0000000000000000, 0.0000000000000000000, -65.00000000000000000 ) ) ;
#272 = DIRECTION ( 'NONE',  ( 0.0000000000000000000, -1.000000000000000000, 0.0000000000000000000 ) ) ;
#273 = CARTESIAN_POINT ( 'NONE',  ( -3.890093056119127500E-014, -9.199999999999999300, -47.50000000000000000 ) ) ;
#274 = DIRECTION ( 'NONE',  ( -1.000000000000000000, 0.0000000000000000000, 0.0000000000000000000 ) ) ;
#275 = PERSON_AND_ORGANIZATION_ROLE ( 'creator' ) ;
#276 = CARTESIAN_POINT ( 'NONE',  ( 197.0000000000000000, 0.0000000000000000000, -65.00000000000000000 ) ) ;
#277 = DIRECTION ( 'NONE',  ( 1.000000000000000000, 0.0000000000000000000, -0.0000000000000000000 ) ) ;
#278 = DIRECTION ( 'NONE',  ( -0.0000000000000000000, 1.000000000000000000, -0.0000000000000000000 ) ) ;
#279 = CARTESIAN_POINT ( 'NONE',  ( 197.0000000000000000, 0.8000000000000000400, -65.00000000000000000 ) ) ;
#280 = APPROVAL_STATUS ( 'not_yet_approved' ) ;
#281 = PERSON_AND_ORGANIZATION_ROLE ( 'design_supplier' ) ;
#282 = DIRECTION ( 'NONE',  ( 0.0000000000000000000, 0.0000000000000000000, 1.000000000000000000 ) ) ;
#283 = SECURITY_CLASSIFICATION_LEVEL ( 'unclassified' ) ;
#284 = DIRECTION ( 'NONE',  ( 1.000000000000000000, 0.0000000000000000000, 0.0000000000000000000 ) ) ;
#285 = DIRECTION ( 'NONE',  ( 0.0000000000000000000, 0.0000000000000000000, -1.000000000000000000 ) ) ;
#286 = PERSON_AND_ORGANIZATION_ROLE ( 'classification_officer' ) ;
#287 = CARTESIAN_POINT ( 'NONE',  ( -3.885343218030143000E-014, 0.0000000000000000000, -50.00000000000000000 ) ) ;
#288 = APPROVAL_ROLE ( '' ) ;
#289 = CARTESIAN_POINT ( 'NONE',  ( 0.0000000000000000000, 0.0000000000000000000, 0.0000000000000000000 ) ) ;
#290 = CARTESIAN_POINT ( 'NONE',  ( -197.0000000000000000, 0.0000000000000000000, -65.00000000000000000 ) ) ;
#291 = CARTESIAN_POINT ( 'NONE',  ( -3.885343218030143000E-014, 0.0000000000000000000, -20.00000000000000000 ) ) ;
#292 = APPROVAL_STATUS ( 'not_yet_approved' ) ;
#293 = CARTESIAN_POINT ( 'NONE',  ( 2.499999999999960900, 0.8000000000000008200, -17.50000000000000000 ) ) ;
#294 = DATE_TIME_ROLE ( 'classification_date' ) ;
#295 = APPLICATION_PROTOCOL_DEFINITION ( 'international standard', 'config_control_design', 1994, #270 ) ;
#296 = CARTESIAN_POINT ( 'NONE',  ( -3.885343218030143000E-014, 0.0000000000000000000, -17.50000000000000000 ) ) ;
#297 =( NAMED_UNIT ( * ) PLANE_ANGLE_UNIT ( ) SI_UNIT ( $, .RADIAN. ) );
#298 = PLANE ( 'NONE',  #121 ) ;
#299 = CARTESIAN_POINT ( 'NONE',  ( 197.0000000000000000, 0.8000000000000000400, -65.00000000000000000 ) ) ;
#300 = APPROVAL_ROLE ( '' ) ;
#301 =( LENGTH_UNIT ( ) NAMED_UNIT ( * ) SI_UNIT ( .MILLI., .METRE. ) );
#302 = CARTESIAN_POINT ( 'NONE',  ( -3.884930188631100600E-014, 0.8000000000000008200, -47.50000000000000000 ) ) ;
#303 = DIRECTION ( 'NONE',  ( -0.0000000000000000000, -1.000000000000000000, -0.0000000000000000000 ) ) ;
#304 = APPLICATION_PROTOCOL_DEFINITION ( 'international standard', 'config_control_design', 1994, #268 ) ;
#305 = DIRECTION ( 'NONE',  ( 1.000000000000000000, 0.0000000000000000000, 0.0000000000000000000 ) ) ;
ENDSEC;
END-ISO-10303-21;
