ISO-10303-21;
HEADER;
FILE_DESCRIPTION (( 'STEP AP203' ),
    '1' );
FILE_NAME ('Êðûøêà íà îòâåòâèòåëü Ò-îáðàçíûé âåðòèêàëüíûé TDSA_38382.STEP',
    '2012-11-09T08:44:18',
    ( 'Àñååâ' ),
    ( '' ),
    'SwSTEP 2.0',
    'SolidWorks 2012',
    '' );
FILE_SCHEMA (( 'CONFIG_CONTROL_DESIGN' ));
ENDSEC;

DATA;
#1 = DIRECTION ( 'NONE',  ( -0.0000000000000000000, 0.0000000000000000000, -1.000000000000000000 ) ) ;
#2 = DIRECTION ( 'NONE',  ( 1.000000000000000000, 0.0000000000000000000, -0.0000000000000000000 ) ) ;
#3 = CARTESIAN_POINT ( 'NONE',  ( 41.60000000000000900, -14.00000000000000000, 410.0000000000000000 ) ) ;
#4 = PLANE ( 'NONE',  #162 ) ;
#5 = DIRECTION ( 'NONE',  ( 0.0000000000000000000, -0.0000000000000000000, 1.000000000000000000 ) ) ;
#6 = CARTESIAN_POINT ( 'NONE',  ( 41.00000000000000000, 0.0000000000000000000, 410.0000000000000000 ) ) ;
#7 = PLANE ( 'NONE',  #169 ) ;
#8 = CARTESIAN_POINT ( 'NONE',  ( -41.00000000000000000, 0.0000000000000000000, 410.0000000000000000 ) ) ;
#9 = CARTESIAN_POINT ( 'NONE',  ( -41.00000000000000000, 0.5999999999999999800, 410.0000000000000000 ) ) ;
#10 = DIRECTION ( 'NONE',  ( -0.0000000000000000000, 0.0000000000000000000, -1.000000000000000000 ) ) ;
#11 = DIRECTION ( 'NONE',  ( 1.000000000000000000, 0.0000000000000000000, -0.0000000000000000000 ) ) ;
#12 = CARTESIAN_POINT ( 'NONE',  ( 41.60000000000000900, 0.0000000000000000000, 410.0000000000000000 ) ) ;
#13 = DIRECTION ( 'NONE',  ( 0.0000000000000000000, 1.000000000000000000, 0.0000000000000000000 ) ) ;
#14 = PLANE ( 'NONE',  #170 ) ;
#15 = CARTESIAN_POINT ( 'NONE',  ( 41.60000000000000900, 0.5999999999999999800, 410.0000000000000000 ) ) ;
#16 = CARTESIAN_POINT ( 'NONE',  ( -41.60000000000000900, -14.00000000000000000, 410.0000000000000000 ) ) ;
#17 = CARTESIAN_POINT ( 'NONE',  ( 41.00000000000000000, 0.0000000000000000000, 410.0000000000000000 ) ) ;
#18 = APPROVAL_ROLE ( '' ) ;
#19 = APPROVAL_STATUS ( 'not_yet_approved' ) ;
#20 = CARTESIAN_POINT ( 'NONE',  ( -41.00000000000000000, -14.00000000000000000, 0.0000000000000000000 ) ) ;
#21 = DATE_TIME_ROLE ( 'classification_date' ) ;
#22 = CARTESIAN_POINT ( 'NONE',  ( -41.00000000000000000, -14.00000000000000000, 410.0000000000000000 ) ) ;
#23 = CARTESIAN_POINT ( 'NONE',  ( 41.00000000000000000, -14.00000000000000000, 410.0000000000000000 ) ) ;
#24 = CARTESIAN_POINT ( 'NONE',  ( -41.60000000000000900, 0.5999999999999999800, 0.0000000000000000000 ) ) ;
#25 = PERSON_AND_ORGANIZATION_ROLE ( 'classification_officer' ) ;
#26 = SECURITY_CLASSIFICATION_LEVEL ( 'unclassified' ) ;
#27 = CARTESIAN_POINT ( 'NONE',  ( 41.00000000000000000, -14.00000000000000000, 0.0000000000000000000 ) ) ;
#28 = PERSON_AND_ORGANIZATION_ROLE ( 'design_supplier' ) ;
#29 = PERSON_AND_ORGANIZATION_ROLE ( 'creator' ) ;
#30 = APPROVAL_ROLE ( '' ) ;
#31 = CARTESIAN_POINT ( 'NONE',  ( -41.60000000000000900, -14.00000000000000000, 0.0000000000000000000 ) ) ;
#32 = CARTESIAN_POINT ( 'NONE',  ( -41.00000000000000000, 0.0000000000000000000, 0.0000000000000000000 ) ) ;
#33 = APPROVAL_STATUS ( 'not_yet_approved' ) ;
#34 = CARTESIAN_POINT ( 'NONE',  ( 41.60000000000000900, -14.00000000000000000, 0.0000000000000000000 ) ) ;
#35 = DATE_TIME_ROLE ( 'creation_date' ) ;
#36 = PERSON_AND_ORGANIZATION_ROLE ( 'creator' ) ;
#37 = APPROVAL_ROLE ( '' ) ;
#38 = CARTESIAN_POINT ( 'NONE',  ( -41.00000000000000000, 0.0000000000000000000, 410.0000000000000000 ) ) ;
#39 = CARTESIAN_POINT ( 'NONE',  ( 41.60000000000000900, 0.5999999999999999800, 0.0000000000000000000 ) ) ;
#40 = APPROVAL_STATUS ( 'not_yet_approved' ) ;
#41 = APPLICATION_PROTOCOL_DEFINITION ( 'international standard', 'config_control_design', 1994, #45 ) ;
#42 = DIRECTION ( 'NONE',  ( 0.0000000000000000000, -1.000000000000000000, 0.0000000000000000000 ) ) ;
#43 = CARTESIAN_POINT ( 'NONE',  ( 41.60000000000000900, -14.00000000000000000, 410.0000000000000000 ) ) ;
#44 = CARTESIAN_POINT ( 'NONE',  ( 41.00000000000000000, 0.0000000000000000000, 0.0000000000000000000 ) ) ;
#45 = APPLICATION_CONTEXT ( 'configuration controlled 3d designs of mechanical parts and assemblies' ) ;
#46 = PERSON_AND_ORGANIZATION_ROLE ( 'design_owner' ) ;
#47 = MECHANICAL_CONTEXT ( 'NONE', #52, 'mechanical' ) ;
#48 = DIRECTION ( 'NONE',  ( 0.0000000000000000000, -1.000000000000000000, 0.0000000000000000000 ) ) ;
#49 = DIRECTION ( 'NONE',  ( 1.000000000000000000, 0.0000000000000000000, 0.0000000000000000000 ) ) ;
#50 = CARTESIAN_POINT ( 'NONE',  ( 41.00000000000000000, 0.0000000000000000000, 410.0000000000000000 ) ) ;
#51 = DIRECTION ( 'NONE',  ( -0.0000000000000000000, -0.0000000000000000000, -1.000000000000000000 ) ) ;
#52 = APPLICATION_CONTEXT ( 'configuration controlled 3d designs of mechanical parts and assemblies' ) ;
#53 = APPLICATION_PROTOCOL_DEFINITION ( 'international standard', 'config_control_design', 1994, #52 ) ;
#54 = CARTESIAN_POINT ( 'NONE',  ( 41.00000000000000000, -14.00000000000000000, 410.0000000000000000 ) ) ;
#55 = DIRECTION ( 'NONE',  ( 1.000000000000000000, 0.0000000000000000000, 0.0000000000000000000 ) ) ;
#56 =( NAMED_UNIT ( * ) SI_UNIT ( $, .STERADIAN. ) SOLID_ANGLE_UNIT ( ) );
#57 =( NAMED_UNIT ( * ) PLANE_ANGLE_UNIT ( ) SI_UNIT ( $, .RADIAN. ) );
#58 = CARTESIAN_POINT ( 'NONE',  ( -41.60000000000000900, 0.5999999999999999800, 410.0000000000000000 ) ) ;
#59 =( LENGTH_UNIT ( ) NAMED_UNIT ( * ) SI_UNIT ( .MILLI., .METRE. ) );
#60 = DIRECTION ( 'NONE',  ( 1.000000000000000000, 0.0000000000000000000, 0.0000000000000000000 ) ) ;
#61 = DIRECTION ( 'NONE',  ( 0.0000000000000000000, 0.0000000000000000000, 1.000000000000000000 ) ) ;
#62 = DIRECTION ( 'NONE',  ( 0.0000000000000000000, 0.0000000000000000000, 1.000000000000000000 ) ) ;
#63 = DIRECTION ( 'NONE',  ( -0.0000000000000000000, -1.000000000000000000, -0.0000000000000000000 ) ) ;
#64 = CARTESIAN_POINT ( 'NONE',  ( 1.734723475976807100E-015, 0.0000000000000000000, 14.99999999999999300 ) ) ;
#65 = CARTESIAN_POINT ( 'NONE',  ( 0.0000000000000000000, 0.0000000000000000000, 0.0000000000000000000 ) ) ;
#66 = DIRECTION ( 'NONE',  ( 0.0000000000000000000, 0.0000000000000000000, 1.000000000000000000 ) ) ;
#67 = CARTESIAN_POINT ( 'NONE',  ( 0.0000000000000000000, 0.0000000000000000000, 397.5000000000000000 ) ) ;
#68 = CARTESIAN_POINT ( 'NONE',  ( 0.0000000000000000000, 0.5999999999999999800, 392.5000000000000000 ) ) ;
#69 = CARTESIAN_POINT ( 'NONE',  ( 1.734723475976807100E-015, 0.5999999999999999800, 17.49999999999999600 ) ) ;
#70 = DIRECTION ( 'NONE',  ( -1.000000000000000000, 0.0000000000000000000, 0.0000000000000000000 ) ) ;
#71 = DIRECTION ( 'NONE',  ( -0.0000000000000000000, 0.0000000000000000000, -1.000000000000000000 ) ) ;
#72 = CARTESIAN_POINT ( 'NONE',  ( 1.734723475976807100E-015, 0.0000000000000000000, 17.49999999999999600 ) ) ;
#73 = DIRECTION ( 'NONE',  ( -0.0000000000000000000, -1.000000000000000000, -0.0000000000000000000 ) ) ;
#74 = PLANE ( 'NONE',  #211 ) ;
#75 = CARTESIAN_POINT ( 'NONE',  ( 0.0000000000000000000, 0.0000000000000000000, 395.0000000000000000 ) ) ;
#76 = CARTESIAN_POINT ( 'NONE',  ( 41.00000000000000000, 0.0000000000000000000, 0.0000000000000000000 ) ) ;
#77 = CARTESIAN_POINT ( 'NONE',  ( 0.0000000000000000000, 0.0000000000000000000, 0.0000000000000000000 ) ) ;
#78 = CARTESIAN_POINT ( 'NONE',  ( -41.00000000000000000, 0.0000000000000000000, 410.0000000000000000 ) ) ;
#79 = DIRECTION ( 'NONE',  ( -0.0000000000000000000, 1.000000000000000000, -0.0000000000000000000 ) ) ;
#80 = CARTESIAN_POINT ( 'NONE',  ( -41.00000000000000000, 0.0000000000000000000, 0.0000000000000000000 ) ) ;
#81 = CARTESIAN_POINT ( 'NONE',  ( 0.0000000000000000000, -14.00099999999999900, 395.0000000000000000 ) ) ;
#82 = DIRECTION ( 'NONE',  ( 0.0000000000000000000, 0.0000000000000000000, 1.000000000000000000 ) ) ;
#83 = DIRECTION ( 'NONE',  ( -0.0000000000000000000, 1.000000000000000000, -0.0000000000000000000 ) ) ;
#84 = DIRECTION ( 'NONE',  ( -0.0000000000000000000, -0.0000000000000000000, -1.000000000000000000 ) ) ;
#85 = CARTESIAN_POINT ( 'NONE',  ( 1.734723475976807100E-015, -14.00099999999999900, 14.99999999999999300 ) ) ;
#86 = CARTESIAN_POINT ( 'NONE',  ( -41.00000000000000000, 0.0000000000000000000, 410.0000000000000000 ) ) ;
#87 = DIRECTION ( 'NONE',  ( -0.0000000000000000000, 1.000000000000000000, -0.0000000000000000000 ) ) ;
#88 = DIRECTION ( 'NONE',  ( 0.0000000000000000000, -0.0000000000000000000, -1.000000000000000000 ) ) ;
#89 = CARTESIAN_POINT ( 'NONE',  ( -41.00000000000000000, 0.0000000000000000000, 0.0000000000000000000 ) ) ;
#90 = DIRECTION ( 'NONE',  ( 0.0000000000000000000, -1.000000000000000000, 0.0000000000000000000 ) ) ;
#91 = DIRECTION ( 'NONE',  ( -0.0000000000000000000, 1.000000000000000000, -0.0000000000000000000 ) ) ;
#92 = PLANE ( 'NONE',  #152 ) ;
#93 = DIRECTION ( 'NONE',  ( -1.000000000000000000, 0.0000000000000000000, 0.0000000000000000000 ) ) ;
#94 = DIRECTION ( 'NONE',  ( -0.0000000000000000000, -0.0000000000000000000, -1.000000000000000000 ) ) ;
#95 = DIRECTION ( 'NONE',  ( 0.0000000000000000000, 0.0000000000000000000, 1.000000000000000000 ) ) ;
#96 = DIRECTION ( 'NONE',  ( -1.000000000000000000, 0.0000000000000000000, 0.0000000000000000000 ) ) ;
#97 = DIRECTION ( 'NONE',  ( 0.0000000000000000000, 0.0000000000000000000, 1.000000000000000000 ) ) ;
#98 = CARTESIAN_POINT ( 'NONE',  ( -41.00000000000000000, -14.00000000000000000, 410.0000000000000000 ) ) ;
#99 = PLANE ( 'NONE',  #205 ) ;
#100 = DIRECTION ( 'NONE',  ( -1.000000000000000000, 0.0000000000000000000, 0.0000000000000000000 ) ) ;
#101 = DIRECTION ( 'NONE',  ( -0.0000000000000000000, 0.0000000000000000000, -1.000000000000000000 ) ) ;
#102 = DIRECTION ( 'NONE',  ( -1.000000000000000000, 0.0000000000000000000, 0.0000000000000000000 ) ) ;
#103 = CARTESIAN_POINT ( 'NONE',  ( -41.00000000000000000, -14.00000000000000000, 410.0000000000000000 ) ) ;
#104 = PLANE ( 'NONE',  #214 ) ;
#105 = DIRECTION ( 'NONE',  ( 0.0000000000000000000, -0.0000000000000000000, 1.000000000000000000 ) ) ;
#106 = CARTESIAN_POINT ( 'NONE',  ( 0.0000000000000000000, 0.0000000000000000000, 410.0000000000000000 ) ) ;
#107 = CARTESIAN_POINT ( 'NONE',  ( -41.00000000000000000, -14.00000000000000000, 0.0000000000000000000 ) ) ;
#108 = PLANE ( 'NONE',  #153 ) ;
#109 = CARTESIAN_POINT ( 'NONE',  ( -41.60000000000000900, 0.0000000000000000000, 410.0000000000000000 ) ) ;
#110 = CARTESIAN_POINT ( 'NONE',  ( -41.00000000000000000, 0.0000000000000000000, 410.0000000000000000 ) ) ;
#111 = DIRECTION ( 'NONE',  ( 0.0000000000000000000, 1.000000000000000000, 0.0000000000000000000 ) ) ;
#112 = DIRECTION ( 'NONE',  ( 0.0000000000000000000, -0.0000000000000000000, -1.000000000000000000 ) ) ;
#113 = DIRECTION ( 'NONE',  ( 0.0000000000000000000, -1.000000000000000000, 0.0000000000000000000 ) ) ;
#114 = DIRECTION ( 'NONE',  ( -0.0000000000000000000, -0.0000000000000000000, -1.000000000000000000 ) ) ;
#115 = PLANE ( 'NONE',  #212 ) ;
#116 = CARTESIAN_POINT ( 'NONE',  ( -41.00000000000000000, 0.0000000000000000000, 410.0000000000000000 ) ) ;
#117 = CARTESIAN_POINT ( 'NONE',  ( -41.60000000000000900, -14.00000000000000000, 410.0000000000000000 ) ) ;
#118 = DIRECTION ( 'NONE',  ( 0.0000000000000000000, 0.0000000000000000000, 1.000000000000000000 ) ) ;
#119 = DIRECTION ( 'NONE',  ( 0.0000000000000000000, 1.000000000000000000, 0.0000000000000000000 ) ) ;
#120 = DIRECTION ( 'NONE',  ( -1.000000000000000000, 0.0000000000000000000, 0.0000000000000000000 ) ) ;
#121 = DIRECTION ( 'NONE',  ( 0.0000000000000000000, 1.000000000000000000, 0.0000000000000000000 ) ) ;
#122 = CARTESIAN_POINT ( 'NONE',  ( -41.60000000000000900, 0.0000000000000000000, 0.0000000000000000000 ) ) ;
#123 = PLANE ( 'NONE',  #213 ) ;
#124 = DIRECTION ( 'NONE',  ( 1.000000000000000000, 0.0000000000000000000, 0.0000000000000000000 ) ) ;
#125 = DIRECTION ( 'NONE',  ( -0.0000000000000000000, -0.0000000000000000000, -1.000000000000000000 ) ) ;
#126 = CARTESIAN_POINT ( 'NONE',  ( -41.00000000000000000, -14.00000000000000000, 410.0000000000000000 ) ) ;
#127 = CARTESIAN_POINT ( 'NONE',  ( -41.00000000000000000, 0.5999999999999999800, 410.0000000000000000 ) ) ;
#128 = DIRECTION ( 'NONE',  ( 1.000000000000000000, 0.0000000000000000000, 0.0000000000000000000 ) ) ;
#129 = DIRECTION ( 'NONE',  ( 0.0000000000000000000, 0.0000000000000000000, 1.000000000000000000 ) ) ;
#130 = DIRECTION ( 'NONE',  ( 0.0000000000000000000, 1.000000000000000000, 0.0000000000000000000 ) ) ;
#131 = CARTESIAN_POINT ( 'NONE',  ( 1.734723475976807100E-015, 0.5999999999999999800, 14.99999999999999300 ) ) ;
#132 = DIRECTION ( 'NONE',  ( 0.0000000000000000000, 0.0000000000000000000, -1.000000000000000000 ) ) ;
#133 = DIRECTION ( 'NONE',  ( -0.0000000000000000000, 1.000000000000000000, -0.0000000000000000000 ) ) ;
#134 = CARTESIAN_POINT ( 'NONE',  ( 0.0000000000000000000, 0.5999999999999999800, 395.0000000000000000 ) ) ;
#135 = CARTESIAN_POINT ( 'NONE',  ( -41.60000000000000900, 0.0000000000000000000, 410.0000000000000000 ) ) ;
#136 = CARTESIAN_POINT ( 'NONE',  ( -41.60000000000000900, 0.5999999999999999800, 410.0000000000000000 ) ) ;
#137 = DIRECTION ( 'NONE',  ( -0.0000000000000000000, -1.000000000000000000, 0.0000000000000000000 ) ) ;
#138 = DIRECTION ( 'NONE',  ( -0.0000000000000000000, -0.0000000000000000000, -1.000000000000000000 ) ) ;
#139 = CARTESIAN_POINT ( 'NONE',  ( -41.00000000000000000, 0.5999999999999999800, 0.0000000000000000000 ) ) ;
#140 = CARTESIAN_POINT ( 'NONE',  ( 41.60000000000000900, 0.5999999999999999800, 410.0000000000000000 ) ) ;
#141 = DIRECTION ( 'NONE',  ( -0.0000000000000000000, -1.000000000000000000, 0.0000000000000000000 ) ) ;
#142 = DIRECTION ( 'NONE',  ( -1.000000000000000000, 0.0000000000000000000, 0.0000000000000000000 ) ) ;
#143 = CARTESIAN_POINT ( 'NONE',  ( 41.60000000000000900, 0.0000000000000000000, 410.0000000000000000 ) ) ;
#144 = DIRECTION ( 'NONE',  ( -0.0000000000000000000, -0.0000000000000000000, -1.000000000000000000 ) ) ;
#145 = CARTESIAN_POINT ( 'NONE',  ( 41.60000000000000900, -14.00000000000000000, 410.0000000000000000 ) ) ;
#146 = CARTESIAN_POINT ( 'NONE',  ( 41.60000000000000900, -14.00000000000000000, 410.0000000000000000 ) ) ;
#147 = CARTESIAN_POINT ( 'NONE',  ( 41.60000000000000900, -14.00000000000000000, 0.0000000000000000000 ) ) ;
#148 = DIRECTION ( 'NONE',  ( -1.000000000000000000, 0.0000000000000000000, 0.0000000000000000000 ) ) ;
#149 = CARTESIAN_POINT ( 'NONE',  ( 41.60000000000000900, 0.0000000000000000000, 0.0000000000000000000 ) ) ;
#150 = CARTESIAN_POINT ( 'NONE',  ( 41.00000000000000000, 0.0000000000000000000, 410.0000000000000000 ) ) ;
#151 = DIRECTION ( 'NONE',  ( -0.0000000000000000000, -0.0000000000000000000, -1.000000000000000000 ) ) ;
#152 = AXIS2_PLACEMENT_3D ( 'NONE', #103, #90, #88 ) ;
#153 = AXIS2_PLACEMENT_3D ( 'NONE', #110, #121, #105 ) ;
#154 = CC_DESIGN_APPROVAL ( #155, ( #156 ) ) ;
#155 = APPROVAL ( #40, 'UNSPECIFIED' ) ;
#156 = PRODUCT_DEFINITION ( 'UNKNOWN', '', #207, #437 ) ;
#157 = CC_DESIGN_PERSON_AND_ORGANIZATION_ASSIGNMENT ( #260, #46, ( #420 ) ) ;
#158 = CC_DESIGN_APPROVAL ( #208, ( #207 ) ) ;
#159 = CC_DESIGN_SECURITY_CLASSIFICATION ( #165, ( #207 ) ) ;
#160 = CC_DESIGN_APPROVAL ( #161, ( #165 ) ) ;
#161 = APPROVAL ( #19, 'UNSPECIFIED' ) ;
#162 = AXIS2_PLACEMENT_3D ( 'NONE', #6, #2, #1 ) ;
#163 = CC_DESIGN_DATE_AND_TIME_ASSIGNMENT ( #234, #21, ( #165 ) ) ;
#164 = CC_DESIGN_PERSON_AND_ORGANIZATION_ASSIGNMENT ( #238, #25, ( #165 ) ) ;
#165 = SECURITY_CLASSIFICATION ( '', '', #26 ) ;
#166 = CC_DESIGN_PERSON_AND_ORGANIZATION_ASSIGNMENT ( #239, #28, ( #207 ) ) ;
#167 = CC_DESIGN_PERSON_AND_ORGANIZATION_ASSIGNMENT ( #240, #29, ( #207 ) ) ;
#168 = PRODUCT_RELATED_PRODUCT_CATEGORY ( 'detail', '', ( #420 ) ) ;
#169 = AXIS2_PLACEMENT_3D ( 'NONE', #9, #13, #5 ) ;
#170 = AXIS2_PLACEMENT_3D ( 'NONE', #12, #11, #10 ) ;
#171 = AXIS2_PLACEMENT_3D ( 'NONE', #64, #63, #61 ) ;
#172 = AXIS2_PLACEMENT_3D ( 'NONE', #75, #73, #66 ) ;
#173 = AXIS2_PLACEMENT_3D ( 'NONE', #131, #130, #129 ) ;
#174 = AXIS2_PLACEMENT_3D ( 'NONE', #134, #133, #132 ) ;
#175 = EDGE_CURVE ( 'NONE', #327, #216, #361, .T. ) ;
#176 = EDGE_CURVE ( 'NONE', #219, #224, #409, .T. ) ;
#177 = EDGE_CURVE ( 'NONE', #217, #219, #414, .T. ) ;
#178 = EDGE_CURVE ( 'NONE', #217, #226, #369, .T. ) ;
#179 = EDGE_CURVE ( 'NONE', #221, #219, #368, .T. ) ;
#180 = EDGE_CURVE ( 'NONE', #329, #221, #362, .T. ) ;
#181 = EDGE_CURVE ( 'NONE', #329, #217, #366, .T. ) ;
#182 = EDGE_CURVE ( 'NONE', #271, #271, #324, .T. ) ;
#183 = EDGE_CURVE ( 'NONE', #264, #264, #320, .T. ) ;
#184 = EDGE_CURVE ( 'NONE', #225, #221, #322, .T. ) ;
#185 = EDGE_CURVE ( 'NONE', #223, #225, #321, .T. ) ;
#186 = EDGE_CURVE ( 'NONE', #223, #329, #364, .T. ) ;
#187 = EDGE_CURVE ( 'NONE', #222, #225, #316, .T. ) ;
#188 = EDGE_CURVE ( 'NONE', #328, #222, #314, .T. ) ;
#189 = EDGE_CURVE ( 'NONE', #328, #223, #317, .T. ) ;
#190 = EDGE_CURVE ( 'NONE', #326, #222, #310, .T. ) ;
#191 = EDGE_CURVE ( 'NONE', #325, #326, #308, .T. ) ;
#192 = EDGE_CURVE ( 'NONE', #325, #328, #312, .T. ) ;
#193 = EDGE_CURVE ( 'NONE', #326, #220, #304, .T. ) ;
#194 = EDGE_CURVE ( 'NONE', #218, #220, #302, .T. ) ;
#195 = EDGE_CURVE ( 'NONE', #325, #218, #306, .T. ) ;
#196 = EDGE_CURVE ( 'NONE', #263, #263, #300, .T. ) ;
#197 = EDGE_CURVE ( 'NONE', #262, #262, #294, .T. ) ;
#198 = EDGE_CURVE ( 'NONE', #220, #216, #296, .T. ) ;
#199 = EDGE_CURVE ( 'NONE', #218, #327, #295, .T. ) ;
#200 = EDGE_CURVE ( 'NONE', #226, #224, #291, .T. ) ;
#201 = CC_DESIGN_DATE_AND_TIME_ASSIGNMENT ( #248, #35, ( #156 ) ) ;
#202 = CC_DESIGN_PERSON_AND_ORGANIZATION_ASSIGNMENT ( #252, #36, ( #156 ) ) ;
#203 = EDGE_CURVE ( 'NONE', #327, #226, #290, .T. ) ;
#204 = AXIS2_PLACEMENT_3D ( 'NONE', #85, #91, #97 ) ;
#205 = AXIS2_PLACEMENT_3D ( 'NONE', #109, #96, #95 ) ;
#206 = AXIS2_PLACEMENT_3D ( 'NONE', #81, #79, #82 ) ;
#207 = PRODUCT_DEFINITION_FORMATION_WITH_SPECIFIED_SOURCE ( 'ANY', '', #420, .NOT_KNOWN. ) ;
#208 = APPROVAL ( #33, 'UNSPECIFIED' ) ;
#209 =( GEOMETRIC_REPRESENTATION_CONTEXT ( 3 ) GLOBAL_UNCERTAINTY_ASSIGNED_CONTEXT ( ( #423 ) ) GLOBAL_UNIT_ASSIGNED_CONTEXT ( ( #59, #57, #56 ) ) REPRESENTATION_CONTEXT ( 'NONE', 'WORKASPACE' ) );
#210 = EDGE_CURVE ( 'NONE', #216, #224, #288, .T. ) ;
#211 = AXIS2_PLACEMENT_3D ( 'NONE', #77, #71, #70 ) ;
#212 = AXIS2_PLACEMENT_3D ( 'NONE', #3, #113, #112 ) ;
#213 = AXIS2_PLACEMENT_3D ( 'NONE', #8, #120, #118 ) ;
#214 = AXIS2_PLACEMENT_3D ( 'NONE', #106, #101, #100 ) ;
#215 = AXIS2_PLACEMENT_3D ( 'NONE', #65, #62, #49 ) ;
#216 = VERTEX_POINT ( 'NONE', #76 ) ;
#217 = VERTEX_POINT ( 'NONE', #43 ) ;
#218 = VERTEX_POINT ( 'NONE', #38 ) ;
#219 = VERTEX_POINT ( 'NONE', #34 ) ;
#220 = VERTEX_POINT ( 'NONE', #32 ) ;
#221 = VERTEX_POINT ( 'NONE', #39 ) ;
#222 = VERTEX_POINT ( 'NONE', #31 ) ;
#223 = VERTEX_POINT ( 'NONE', #58 ) ;
#224 = VERTEX_POINT ( 'NONE', #27 ) ;
#225 = VERTEX_POINT ( 'NONE', #24 ) ;
#226 = VERTEX_POINT ( 'NONE', #23 ) ;
#227 = APPROVAL_DATE_TIME ( #228, #161 ) ;
#228 = DATE_AND_TIME ( #229, #230 ) ;
#229 = CALENDAR_DATE ( 2012, 9, 11 ) ;
#230 = LOCAL_TIME ( 12, 44, 18.00000000000000000, #231 ) ;
#231 = COORDINATED_UNIVERSAL_TIME_OFFSET ( 4, 0, .AHEAD. ) ;
#232 = APPROVAL_PERSON_ORGANIZATION ( #233, #161, #18 ) ;
#233 = PERSON_AND_ORGANIZATION ( #419, #261 ) ;
#234 = DATE_AND_TIME ( #235, #236 ) ;
#235 = CALENDAR_DATE ( 2012, 9, 11 ) ;
#236 = LOCAL_TIME ( 12, 44, 18.00000000000000000, #237 ) ;
#237 = COORDINATED_UNIVERSAL_TIME_OFFSET ( 4, 0, .AHEAD. ) ;
#238 = PERSON_AND_ORGANIZATION ( #419, #261 ) ;
#239 = PERSON_AND_ORGANIZATION ( #419, #261 ) ;
#240 = PERSON_AND_ORGANIZATION ( #419, #261 ) ;
#241 = APPROVAL_DATE_TIME ( #242, #208 ) ;
#242 = DATE_AND_TIME ( #243, #244 ) ;
#243 = CALENDAR_DATE ( 2012, 9, 11 ) ;
#244 = LOCAL_TIME ( 12, 44, 18.00000000000000000, #245 ) ;
#245 = COORDINATED_UNIVERSAL_TIME_OFFSET ( 4, 0, .AHEAD. ) ;
#246 = APPROVAL_PERSON_ORGANIZATION ( #247, #208, #30 ) ;
#247 = PERSON_AND_ORGANIZATION ( #419, #261 ) ;
#248 = DATE_AND_TIME ( #249, #250 ) ;
#249 = CALENDAR_DATE ( 2012, 9, 11 ) ;
#250 = LOCAL_TIME ( 12, 44, 18.00000000000000000, #251 ) ;
#251 = COORDINATED_UNIVERSAL_TIME_OFFSET ( 4, 0, .AHEAD. ) ;
#252 = PERSON_AND_ORGANIZATION ( #419, #261 ) ;
#253 = APPROVAL_DATE_TIME ( #254, #155 ) ;
#254 = DATE_AND_TIME ( #255, #256 ) ;
#255 = CALENDAR_DATE ( 2012, 9, 11 ) ;
#256 = LOCAL_TIME ( 12, 44, 18.00000000000000000, #257 ) ;
#257 = COORDINATED_UNIVERSAL_TIME_OFFSET ( 4, 0, .AHEAD. ) ;
#258 = APPROVAL_PERSON_ORGANIZATION ( #259, #155, #37 ) ;
#259 = PERSON_AND_ORGANIZATION ( #419, #261 ) ;
#260 = PERSON_AND_ORGANIZATION ( #419, #261 ) ;
#261 = ORGANIZATION ( 'UNSPECIFIED', 'UNSPECIFIED', '' ) ;
#262 = VERTEX_POINT ( 'NONE', #72 ) ;
#263 = VERTEX_POINT ( 'NONE', #67 ) ;
#264 = VERTEX_POINT ( 'NONE', #69 ) ;
#265 = CYLINDRICAL_SURFACE ( 'NONE', #206, 2.500000000000002200 ) ;
#266 = SHAPE_DEFINITION_REPRESENTATION ( #436, #421 ) ;
#267 = FACE_OUTER_BOUND ( 'NONE', #416, .T. ) ;
#268 = CYLINDRICAL_SURFACE ( 'NONE', #204, 2.500000000000002200 ) ;
#269 = FACE_OUTER_BOUND ( 'NONE', #413, .T. ) ;
#270 = FACE_OUTER_BOUND ( 'NONE', #415, .T. ) ;
#271 = VERTEX_POINT ( 'NONE', #68 ) ;
#272 = FACE_OUTER_BOUND ( 'NONE', #412, .T. ) ;
#273 = FACE_OUTER_BOUND ( 'NONE', #407, .T. ) ;
#274 = FACE_OUTER_BOUND ( 'NONE', #417, .T. ) ;
#275 = FACE_BOUND ( 'NONE', #408, .T. ) ;
#276 = FACE_OUTER_BOUND ( 'NONE', #401, .T. ) ;
#277 = FACE_OUTER_BOUND ( 'NONE', #400, .T. ) ;
#278 = FACE_OUTER_BOUND ( 'NONE', #402, .T. ) ;
#279 = FACE_BOUND ( 'NONE', #405, .T. ) ;
#280 = FACE_OUTER_BOUND ( 'NONE', #418, .T. ) ;
#281 = FACE_OUTER_BOUND ( 'NONE', #406, .T. ) ;
#282 = FACE_OUTER_BOUND ( 'NONE', #404, .T. ) ;
#283 = FACE_BOUND ( 'NONE', #403, .T. ) ;
#284 = FACE_OUTER_BOUND ( 'NONE', #410, .T. ) ;
#285 = VECTOR ( 'NONE', #42, 1000.000000000000000 ) ;
#286 = FACE_BOUND ( 'NONE', #411, .T. ) ;
#287 = VECTOR ( 'NONE', #48, 1000.000000000000000 ) ;
#288 = LINE ( 'NONE', #44, #285 ) ;
#289 = VECTOR ( 'NONE', #51, 1000.000000000000000 ) ;
#290 = LINE ( 'NONE', #50, #287 ) ;
#291 = LINE ( 'NONE', #54, #289 ) ;
#292 = VECTOR ( 'NONE', #60, 1000.000000000000000 ) ;
#293 = VECTOR ( 'NONE', #55, 1000.000000000000000 ) ;
#294 = CIRCLE ( 'NONE', #171, 2.500000000000002200 ) ;
#295 = LINE ( 'NONE', #78, #293 ) ;
#296 = LINE ( 'NONE', #80, #292 ) ;
#297 = VECTOR ( 'NONE', #83, 1000.000000000000000 ) ;
#298 = FACE_OUTER_BOUND ( 'NONE', #399, .T. ) ;
#299 = VECTOR ( 'NONE', #84, 1000.000000000000000 ) ;
#300 = CIRCLE ( 'NONE', #172, 2.500000000000002200 ) ;
#301 = VECTOR ( 'NONE', #87, 1000.000000000000000 ) ;
#302 = LINE ( 'NONE', #86, #299 ) ;
#303 = VECTOR ( 'NONE', #93, 1000.000000000000000 ) ;
#304 = LINE ( 'NONE', #89, #301 ) ;
#305 = VECTOR ( 'NONE', #94, 1000.000000000000000 ) ;
#306 = LINE ( 'NONE', #116, #297 ) ;
#307 = VECTOR ( 'NONE', #102, 1000.000000000000000 ) ;
#308 = LINE ( 'NONE', #98, #305 ) ;
#309 = VECTOR ( 'NONE', #111, 1000.000000000000000 ) ;
#310 = LINE ( 'NONE', #107, #307 ) ;
#311 = VECTOR ( 'NONE', #114, 1000.000000000000000 ) ;
#312 = LINE ( 'NONE', #126, #303 ) ;
#313 = VECTOR ( 'NONE', #119, 1000.000000000000000 ) ;
#314 = LINE ( 'NONE', #117, #311 ) ;
#315 = VECTOR ( 'NONE', #124, 1000.000000000000000 ) ;
#316 = LINE ( 'NONE', #122, #313 ) ;
#317 = LINE ( 'NONE', #135, #309 ) ;
#318 = VECTOR ( 'NONE', #128, 1000.000000000000000 ) ;
#319 = VECTOR ( 'NONE', #125, 1000.000000000000000 ) ;
#320 = CIRCLE ( 'NONE', #173, 2.500000000000002200 ) ;
#321 = LINE ( 'NONE', #136, #319 ) ;
#322 = LINE ( 'NONE', #139, #318 ) ;
#323 = VECTOR ( 'NONE', #137, 1000.000000000000000 ) ;
#324 = CIRCLE ( 'NONE', #174, 2.500000000000002200 ) ;
#325 = VERTEX_POINT ( 'NONE', #22 ) ;
#326 = VERTEX_POINT ( 'NONE', #20 ) ;
#327 = VERTEX_POINT ( 'NONE', #17 ) ;
#328 = VERTEX_POINT ( 'NONE', #16 ) ;
#329 = VERTEX_POINT ( 'NONE', #15 ) ;
#330 = ORIENTED_EDGE ( 'NONE', *, *, #200, .T. ) ;
#331 = ORIENTED_EDGE ( 'NONE', *, *, #185, .F. ) ;
#332 = ORIENTED_EDGE ( 'NONE', *, *, #210, .F. ) ;
#333 = ORIENTED_EDGE ( 'NONE', *, *, #192, .F. ) ;
#334 = ORIENTED_EDGE ( 'NONE', *, *, #195, .T. ) ;
#335 = ORIENTED_EDGE ( 'NONE', *, *, #186, .F. ) ;
#336 = ORIENTED_EDGE ( 'NONE', *, *, #181, .T. ) ;
#337 = ORIENTED_EDGE ( 'NONE', *, *, #192, .T. ) ;
#338 = ORIENTED_EDGE ( 'NONE', *, *, #184, .T. ) ;
#339 = ORIENTED_EDGE ( 'NONE', *, *, #183, .F. ) ;
#340 = ORIENTED_EDGE ( 'NONE', *, *, #179, .T. ) ;
#341 = ORIENTED_EDGE ( 'NONE', *, *, #186, .T. ) ;
#342 = ORIENTED_EDGE ( 'NONE', *, *, #180, .F. ) ;
#343 = ORIENTED_EDGE ( 'NONE', *, *, #181, .F. ) ;
#344 = ORIENTED_EDGE ( 'NONE', *, *, #176, .T. ) ;
#345 = ORIENTED_EDGE ( 'NONE', *, *, #203, .T. ) ;
#346 = ORIENTED_EDGE ( 'NONE', *, *, #178, .F. ) ;
#347 = ORIENTED_EDGE ( 'NONE', *, *, #199, .F. ) ;
#348 = ORIENTED_EDGE ( 'NONE', *, *, #194, .T. ) ;
#349 = ORIENTED_EDGE ( 'NONE', *, *, #187, .T. ) ;
#350 = ORIENTED_EDGE ( 'NONE', *, *, #190, .T. ) ;
#351 = ORIENTED_EDGE ( 'NONE', *, *, #175, .T. ) ;
#352 = ORIENTED_EDGE ( 'NONE', *, *, #191, .F. ) ;
#353 = ORIENTED_EDGE ( 'NONE', *, *, #188, .F. ) ;
#354 = ORIENTED_EDGE ( 'NONE', *, *, #187, .F. ) ;
#355 = ORIENTED_EDGE ( 'NONE', *, *, #190, .F. ) ;
#356 = ORIENTED_EDGE ( 'NONE', *, *, #185, .T. ) ;
#357 = ORIENTED_EDGE ( 'NONE', *, *, #189, .F. ) ;
#358 = ORIENTED_EDGE ( 'NONE', *, *, #189, .T. ) ;
#359 = ORIENTED_EDGE ( 'NONE', *, *, #203, .F. ) ;
#360 = VECTOR ( 'NONE', #151, 1000.000000000000000 ) ;
#361 = LINE ( 'NONE', #150, #360 ) ;
#362 = LINE ( 'NONE', #140, #374 ) ;
#363 = VECTOR ( 'NONE', #141, 1000.000000000000000 ) ;
#364 = LINE ( 'NONE', #127, #315 ) ;
#365 = VECTOR ( 'NONE', #144, 1000.000000000000000 ) ;
#366 = LINE ( 'NONE', #143, #323 ) ;
#367 = VECTOR ( 'NONE', #142, 1000.000000000000000 ) ;
#368 = LINE ( 'NONE', #149, #363 ) ;
#369 = LINE ( 'NONE', #145, #367 ) ;
#370 = ORIENTED_EDGE ( 'NONE', *, *, #182, .F. ) ;
#371 = ORIENTED_EDGE ( 'NONE', *, *, #210, .T. ) ;
#372 = ORIENTED_EDGE ( 'NONE', *, *, #200, .F. ) ;
#373 = VECTOR ( 'NONE', #148, 1000.000000000000000 ) ;
#374 = VECTOR ( 'NONE', #138, 1000.000000000000000 ) ;
#375 = ORIENTED_EDGE ( 'NONE', *, *, #194, .F. ) ;
#376 = ORIENTED_EDGE ( 'NONE', *, *, #193, .T. ) ;
#377 = ORIENTED_EDGE ( 'NONE', *, *, #191, .T. ) ;
#378 = ORIENTED_EDGE ( 'NONE', *, *, #195, .F. ) ;
#379 = ORIENTED_EDGE ( 'NONE', *, *, #197, .F. ) ;
#380 = ORIENTED_EDGE ( 'NONE', *, *, #196, .F. ) ;
#381 = ORIENTED_EDGE ( 'NONE', *, *, #175, .F. ) ;
#382 = ORIENTED_EDGE ( 'NONE', *, *, #198, .T. ) ;
#383 = ORIENTED_EDGE ( 'NONE', *, *, #182, .T. ) ;
#384 = ORIENTED_EDGE ( 'NONE', *, *, #176, .F. ) ;
#385 = ORIENTED_EDGE ( 'NONE', *, *, #183, .T. ) ;
#386 = ORIENTED_EDGE ( 'NONE', *, *, #179, .F. ) ;
#387 = ORIENTED_EDGE ( 'NONE', *, *, #188, .T. ) ;
#388 = CLOSED_SHELL ( 'NONE', ( #426, #428, #424, #425, #431, #432, #427, #429, #430, #435, #433, #434 ) ) ;
#389 = ORIENTED_EDGE ( 'NONE', *, *, #177, .F. ) ;
#390 = ORIENTED_EDGE ( 'NONE', *, *, #193, .F. ) ;
#391 = ORIENTED_EDGE ( 'NONE', *, *, #199, .T. ) ;
#392 = ORIENTED_EDGE ( 'NONE', *, *, #198, .F. ) ;
#393 = ORIENTED_EDGE ( 'NONE', *, *, #197, .T. ) ;
#394 = ORIENTED_EDGE ( 'NONE', *, *, #180, .T. ) ;
#395 = ORIENTED_EDGE ( 'NONE', *, *, #184, .F. ) ;
#396 = ORIENTED_EDGE ( 'NONE', *, *, #178, .T. ) ;
#397 = ORIENTED_EDGE ( 'NONE', *, *, #177, .T. ) ;
#398 = ORIENTED_EDGE ( 'NONE', *, *, #196, .T. ) ;
#399 = EDGE_LOOP ( 'NONE', ( #371, #372, #359, #351 ) ) ;
#400 = EDGE_LOOP ( 'NONE', ( #354, #353, #358, #356 ) ) ;
#401 = EDGE_LOOP ( 'NONE', ( #345, #346, #343, #335, #357, #333, #334, #391 ) ) ;
#402 = EDGE_LOOP ( 'NONE', ( #384, #389, #396, #330 ) ) ;
#403 = EDGE_LOOP ( 'NONE', ( #339 ) ) ;
#404 = EDGE_LOOP ( 'NONE', ( #376, #375, #378, #377 ) ) ;
#405 = EDGE_LOOP ( 'NONE', ( #380 ) ) ;
#406 = EDGE_LOOP ( 'NONE', ( #395, #331, #341, #394 ) ) ;
#407 = EDGE_LOOP ( 'NONE', ( #355, #352, #337, #387 ) ) ;
#408 = EDGE_LOOP ( 'NONE', ( #379 ) ) ;
#409 = LINE ( 'NONE', #147, #373 ) ;
#410 = EDGE_LOOP ( 'NONE', ( #386, #342, #336, #397 ) ) ;
#411 = EDGE_LOOP ( 'NONE', ( #370 ) ) ;
#412 = EDGE_LOOP ( 'NONE', ( #385 ) ) ;
#413 = EDGE_LOOP ( 'NONE', ( #332, #392, #390, #350, #349, #338, #340, #344 ) ) ;
#414 = LINE ( 'NONE', #146, #365 ) ;
#415 = EDGE_LOOP ( 'NONE', ( #393 ) ) ;
#416 = EDGE_LOOP ( 'NONE', ( #398 ) ) ;
#417 = EDGE_LOOP ( 'NONE', ( #383 ) ) ;
#418 = EDGE_LOOP ( 'NONE', ( #382, #381, #347, #348 ) ) ;
#419 = PERSON ( 'UNSPECIFIED', 'UNSPECIFIED', 'UNSPECIFIED', ('UNSPECIFIED'), ('UNSPECIFIED'), ('UNSPECIFIED') ) ;
#420 = PRODUCT ( 'Êðûøêà íà îòâåòâèòåëü Ò-îáðàçíûé âåðòèêàëüíûé TDSA_38382', 'Êðûøêà íà îòâåòâèòåëü Ò-îáðàçíûé âåðòèêàëüíûé TDSA_38382', '', ( #47 ) ) ;
#421 = ADVANCED_BREP_SHAPE_REPRESENTATION ( '¦¨v°úð ýð þªòõªòøªõû¹ T-þñ¨ð÷ývù òõ¨ªøúðû¹ývù TDSA_38382', ( #422, #215 ), #209 ) ;
#422 = MANIFOLD_SOLID_BREP ( 'Âûðåç-Âûòÿíóòü1', #388 ) ;
#423 = UNCERTAINTY_MEASURE_WITH_UNIT (LENGTH_MEASURE( 1.000000000000000100E-005 ), #59, 'distance_accuracy_value', 'NONE');
#424 = ADVANCED_FACE ( 'NONE', ( #284 ), #14, .T. ) ;
#425 = ADVANCED_FACE ( 'NONE', ( #286, #283, #281 ), #7, .T. ) ;
#426 = ADVANCED_FACE ( 'NONE', ( #298 ), #4, .F. ) ;
#427 = ADVANCED_FACE ( 'NONE', ( #282 ), #123, .F. ) ;
#428 = ADVANCED_FACE ( 'NONE', ( #278 ), #115, .T. ) ;
#429 = ADVANCED_FACE ( 'NONE', ( #279, #275, #280 ), #108, .F. ) ;
#430 = ADVANCED_FACE ( 'NONE', ( #276 ), #104, .F. ) ;
#431 = ADVANCED_FACE ( 'NONE', ( #277 ), #99, .T. ) ;
#432 = ADVANCED_FACE ( 'NONE', ( #273 ), #92, .T. ) ;
#433 = ADVANCED_FACE ( 'NONE', ( #272, #270 ), #268, .F. ) ;
#434 = ADVANCED_FACE ( 'NONE', ( #274, #267 ), #265, .F. ) ;
#435 = ADVANCED_FACE ( 'NONE', ( #269 ), #74, .T. ) ;
#436 = PRODUCT_DEFINITION_SHAPE ( 'NONE', 'NONE',  #156 ) ;
#437 = DESIGN_CONTEXT ( 'detailed design', #45, 'design' ) ;
ENDSEC;
END-ISO-10303-21;
