ISO-10303-21;
HEADER;
FILE_DESCRIPTION (( 'STEP AP203' ),
    '1' );
FILE_NAME ('Êðûøêà íà óãîë âåðòèêàëüíûé âíåøíèé CDSD 90_38284.STEP',
    '2012-11-09T08:45:05',
    ( 'Àñååâ' ),
    ( '' ),
    'SwSTEP 2.0',
    'SolidWorks 2012',
    '' );
FILE_SCHEMA (( 'CONFIG_CONTROL_DESIGN' ));
ENDSEC;

DATA;
#1 = ORIENTED_EDGE ( 'NONE', *, *, #294, .F. ) ;
#2 = ORIENTED_EDGE ( 'NONE', *, *, #298, .F. ) ;
#3 = ORIENTED_EDGE ( 'NONE', *, *, #292, .T. ) ;
#4 = ORIENTED_EDGE ( 'NONE', *, *, #288, .T. ) ;
#5 = ORIENTED_EDGE ( 'NONE', *, *, #297, .T. ) ;
#6 = ORIENTED_EDGE ( 'NONE', *, *, #287, .T. ) ;
#7 = ORIENTED_EDGE ( 'NONE', *, *, #248, .T. ) ;
#8 = ORIENTED_EDGE ( 'NONE', *, *, #297, .F. ) ;
#9 = ORIENTED_EDGE ( 'NONE', *, *, #296, .T. ) ;
#10 = ORIENTED_EDGE ( 'NONE', *, *, #292, .F. ) ;
#11 = EDGE_LOOP ( 'NONE', ( #33, #187, #39, #175 ) ) ;
#12 = ORIENTED_EDGE ( 'NONE', *, *, #300, .F. ) ;
#13 = ORIENTED_EDGE ( 'NONE', *, *, #298, .T. ) ;
#14 = ORIENTED_EDGE ( 'NONE', *, *, #275, .T. ) ;
#15 = ORIENTED_EDGE ( 'NONE', *, *, #286, .F. ) ;
#16 = ORIENTED_EDGE ( 'NONE', *, *, #270, .F. ) ;
#17 = ORIENTED_EDGE ( 'NONE', *, *, #299, .F. ) ;
#18 = ORIENTED_EDGE ( 'NONE', *, *, #269, .F. ) ;
#19 = ORIENTED_EDGE ( 'NONE', *, *, #238, .F. ) ;
#20 = ORIENTED_EDGE ( 'NONE', *, *, #278, .T. ) ;
#21 = ORIENTED_EDGE ( 'NONE', *, *, #300, .T. ) ;
#22 = PERSON ( 'UNSPECIFIED', 'UNSPECIFIED', 'UNSPECIFIED', ('UNSPECIFIED'), ('UNSPECIFIED'), ('UNSPECIFIED') ) ;
#23 = PRODUCT ( 'Êðûøêà íà óãîë âåðòèêàëüíûé âíåøíèé CDSD 90_38284', 'Êðûøêà íà óãîë âåðòèêàëüíûé âíåøíèé CDSD 90_38284', '', ( #265 ) ) ;
#24 = FACE_OUTER_BOUND ( 'NONE', #44, .T. ) ;
#25 = LINE ( 'NONE', #374, #150 ) ;
#26 = FACE_BOUND ( 'NONE', #48, .T. ) ;
#27 = CYLINDRICAL_SURFACE ( 'NONE', #223, 2.500000000000002200 ) ;
#28 = FACE_OUTER_BOUND ( 'NONE', #61, .T. ) ;
#29 = FACE_OUTER_BOUND ( 'NONE', #49, .T. ) ;
#30 = FACE_OUTER_BOUND ( 'NONE', #57, .T. ) ;
#31 = FACE_OUTER_BOUND ( 'NONE', #55, .T. ) ;
#32 = FACE_OUTER_BOUND ( 'NONE', #54, .T. ) ;
#33 = ORIENTED_EDGE ( 'NONE', *, *, #278, .F. ) ;
#34 = FACE_BOUND ( 'NONE', #60, .T. ) ;
#35 = FACE_OUTER_BOUND ( 'NONE', #45, .T. ) ;
#36 = FACE_OUTER_BOUND ( 'NONE', #52, .T. ) ;
#37 = FACE_OUTER_BOUND ( 'NONE', #47, .T. ) ;
#38 = ORIENTED_EDGE ( 'NONE', *, *, #289, .T. ) ;
#39 = ORIENTED_EDGE ( 'NONE', *, *, #286, .T. ) ;
#40 = FACE_BOUND ( 'NONE', #50, .T. ) ;
#41 = ORIENTED_EDGE ( 'NONE', *, *, #287, .F. ) ;
#42 = FACE_OUTER_BOUND ( 'NONE', #51, .T. ) ;
#43 = FACE_BOUND ( 'NONE', #53, .T. ) ;
#44 = EDGE_LOOP ( 'NONE', ( #186, #18, #203, #195 ) ) ;
#45 = EDGE_LOOP ( 'NONE', ( #21, #19, #16, #178, #15, #188, #185, #13 ) ) ;
#46 = ORIENTED_EDGE ( 'NONE', *, *, #279, .T. ) ;
#47 = EDGE_LOOP ( 'NONE', ( #190, #193, #192, #194 ) ) ;
#48 = EDGE_LOOP ( 'NONE', ( #199 ) ) ;
#49 = EDGE_LOOP ( 'NONE', ( #184, #10, #1, #4 ) ) ;
#50 = EDGE_LOOP ( 'NONE', ( #177 ) ) ;
#51 = EDGE_LOOP ( 'NONE', ( #196, #205, #202, #204 ) ) ;
#52 = EDGE_LOOP ( 'NONE', ( #41, #180, #38, #46 ) ) ;
#53 = EDGE_LOOP ( 'NONE', ( #198 ) ) ;
#54 = EDGE_LOOP ( 'NONE', ( #179 ) ) ;
#55 = EDGE_LOOP ( 'NONE', ( #5, #160, #2, #3 ) ) ;
#56 = EDGE_LOOP ( 'NONE', ( #17, #8, #183, #6, #20, #14, #7, #181 ) ) ;
#57 = EDGE_LOOP ( 'NONE', ( #176 ) ) ;
#58 = EDGE_LOOP ( 'NONE', ( #200 ) ) ;
#59 = EDGE_LOOP ( 'NONE', ( #9 ) ) ;
#60 = EDGE_LOOP ( 'NONE', ( #197 ) ) ;
#61 = EDGE_LOOP ( 'NONE', ( #201, #189, #12, #191 ) ) ;
#62 = APPROVAL_DATE_TIME ( #63, #293 ) ;
#63 = DATE_AND_TIME ( #64, #65 ) ;
#64 = CALENDAR_DATE ( 2012, 9, 11 ) ;
#65 = LOCAL_TIME ( 12, 45, 5.000000000000000000, #66 ) ;
#66 = COORDINATED_UNIVERSAL_TIME_OFFSET ( 4, 0, .AHEAD. ) ;
#67 = APPROVAL_PERSON_ORGANIZATION ( #68, #293, #245 ) ;
#68 = PERSON_AND_ORGANIZATION ( #22, #97 ) ;
#69 = DATE_AND_TIME ( #70, #71 ) ;
#70 = CALENDAR_DATE ( 2012, 9, 11 ) ;
#71 = LOCAL_TIME ( 12, 45, 5.000000000000000000, #72 ) ;
#72 = COORDINATED_UNIVERSAL_TIME_OFFSET ( 4, 0, .AHEAD. ) ;
#73 = PERSON_AND_ORGANIZATION ( #22, #97 ) ;
#74 = PERSON_AND_ORGANIZATION ( #22, #97 ) ;
#75 = PERSON_AND_ORGANIZATION ( #22, #97 ) ;
#76 = APPROVAL_DATE_TIME ( #77, #316 ) ;
#77 = DATE_AND_TIME ( #78, #79 ) ;
#78 = CALENDAR_DATE ( 2012, 9, 11 ) ;
#79 = LOCAL_TIME ( 12, 45, 5.000000000000000000, #80 ) ;
#80 = COORDINATED_UNIVERSAL_TIME_OFFSET ( 4, 0, .AHEAD. ) ;
#81 = APPROVAL_PERSON_ORGANIZATION ( #82, #316, #255 ) ;
#82 = PERSON_AND_ORGANIZATION ( #22, #97 ) ;
#83 = DATE_AND_TIME ( #84, #86 ) ;
#84 = CALENDAR_DATE ( 2012, 9, 11 ) ;
#85 = VERTEX_POINT ( 'NONE', #430 ) ;
#86 = LOCAL_TIME ( 12, 45, 5.000000000000000000, #87 ) ;
#87 = COORDINATED_UNIVERSAL_TIME_OFFSET ( 4, 0, .AHEAD. ) ;
#88 = PERSON_AND_ORGANIZATION ( #22, #97 ) ;
#89 = APPROVAL_DATE_TIME ( #90, #284 ) ;
#90 = DATE_AND_TIME ( #91, #92 ) ;
#91 = CALENDAR_DATE ( 2012, 9, 11 ) ;
#92 = LOCAL_TIME ( 12, 45, 5.000000000000000000, #93 ) ;
#93 = COORDINATED_UNIVERSAL_TIME_OFFSET ( 4, 0, .AHEAD. ) ;
#94 = APPROVAL_PERSON_ORGANIZATION ( #95, #284, #260 ) ;
#95 = PERSON_AND_ORGANIZATION ( #22, #97 ) ;
#96 = PERSON_AND_ORGANIZATION ( #22, #97 ) ;
#97 = ORGANIZATION ( 'UNSPECIFIED', 'UNSPECIFIED', '' ) ;
#98 = VERTEX_POINT ( 'NONE', #239 ) ;
#99 = VERTEX_POINT ( 'NONE', #240 ) ;
#100 = VERTEX_POINT ( 'NONE', #324 ) ;
#101 = SHAPE_DEFINITION_REPRESENTATION ( #318, #206 ) ;
#102 = VECTOR ( 'NONE', #243, 1000.000000000000000 ) ;
#103 = VERTEX_POINT ( 'NONE', #244 ) ;
#104 = VECTOR ( 'NONE', #258, 1000.000000000000000 ) ;
#105 = LINE ( 'NONE', #251, #102 ) ;
#106 = VECTOR ( 'NONE', #250, 1000.000000000000000 ) ;
#107 = LINE ( 'NONE', #267, #104 ) ;
#108 = LINE ( 'NONE', #320, #106 ) ;
#109 = VECTOR ( 'NONE', #325, 1000.000000000000000 ) ;
#110 = VECTOR ( 'NONE', #322, 1000.000000000000000 ) ;
#111 = CIRCLE ( 'NONE', #229, 2.500000000000002200 ) ;
#112 = LINE ( 'NONE', #334, #110 ) ;
#113 = LINE ( 'NONE', #336, #109 ) ;
#114 = VECTOR ( 'NONE', #337, 1000.000000000000000 ) ;
#115 = VECTOR ( 'NONE', #338, 1000.000000000000000 ) ;
#116 = CIRCLE ( 'NONE', #273, 2.500000000000002200 ) ;
#117 = VECTOR ( 'NONE', #341, 1000.000000000000000 ) ;
#118 = VERTEX_POINT ( 'NONE', #429 ) ;
#119 = LINE ( 'NONE', #340, #115 ) ;
#120 = VECTOR ( 'NONE', #321, 1000.000000000000000 ) ;
#121 = LINE ( 'NONE', #346, #117 ) ;
#122 = VECTOR ( 'NONE', #323, 1000.000000000000000 ) ;
#123 = LINE ( 'NONE', #343, #114 ) ;
#124 = VECTOR ( 'NONE', #333, 1000.000000000000000 ) ;
#125 = LINE ( 'NONE', #330, #122 ) ;
#126 = VECTOR ( 'NONE', #339, 1000.000000000000000 ) ;
#127 = LINE ( 'NONE', #335, #124 ) ;
#128 = VECTOR ( 'NONE', #342, 1000.000000000000000 ) ;
#129 = LINE ( 'NONE', #350, #120 ) ;
#130 = VECTOR ( 'NONE', #345, 1000.000000000000000 ) ;
#131 = LINE ( 'NONE', #344, #128 ) ;
#132 = VECTOR ( 'NONE', #348, 1000.000000000000000 ) ;
#133 = LINE ( 'NONE', #347, #130 ) ;
#134 = LINE ( 'NONE', #359, #126 ) ;
#135 = VECTOR ( 'NONE', #352, 1000.000000000000000 ) ;
#136 = VECTOR ( 'NONE', #349, 1000.000000000000000 ) ;
#137 = CIRCLE ( 'NONE', #230, 2.500000000000002200 ) ;
#138 = LINE ( 'NONE', #360, #136 ) ;
#139 = LINE ( 'NONE', #363, #135 ) ;
#140 = VECTOR ( 'NONE', #361, 1000.000000000000000 ) ;
#141 = CIRCLE ( 'NONE', #304, 2.500000000000002200 ) ;
#142 = VECTOR ( 'NONE', #362, 1000.000000000000000 ) ;
#143 = LINE ( 'NONE', #351, #132 ) ;
#144 = VECTOR ( 'NONE', #365, 1000.000000000000000 ) ;
#145 = LINE ( 'NONE', #364, #142 ) ;
#146 = VECTOR ( 'NONE', #366, 1000.000000000000000 ) ;
#147 = LINE ( 'NONE', #367, #140 ) ;
#148 = VECTOR ( 'NONE', #368, 1000.000000000000000 ) ;
#149 = LINE ( 'NONE', #369, #144 ) ;
#150 = VECTOR ( 'NONE', #375, 1000.000000000000000 ) ;
#151 = LINE ( 'NONE', #372, #146 ) ;
#152 = CYLINDRICAL_SURFACE ( 'NONE', #282, 2.500000000000002200 ) ;
#153 = LINE ( 'NONE', #373, #148 ) ;
#154 = FACE_OUTER_BOUND ( 'NONE', #59, .T. ) ;
#155 = LINE ( 'NONE', #371, #156 ) ;
#156 = VECTOR ( 'NONE', #370, 1000.000000000000000 ) ;
#157 = FACE_OUTER_BOUND ( 'NONE', #58, .T. ) ;
#158 = FACE_OUTER_BOUND ( 'NONE', #56, .T. ) ;
#159 = FACE_OUTER_BOUND ( 'NONE', #11, .T. ) ;
#160 = ORIENTED_EDGE ( 'NONE', *, *, #228, .F. ) ;
#161 = VERTEX_POINT ( 'NONE', #434 ) ;
#162 = VERTEX_POINT ( 'NONE', #436 ) ;
#163 = VERTEX_POINT ( 'NONE', #432 ) ;
#164 = VERTEX_POINT ( 'NONE', #433 ) ;
#165 = VERTEX_POINT ( 'NONE', #437 ) ;
#166 = VERTEX_POINT ( 'NONE', #435 ) ;
#167 = VERTEX_POINT ( 'NONE', #428 ) ;
#168 = VERTEX_POINT ( 'NONE', #431 ) ;
#169 = VERTEX_POINT ( 'NONE', #427 ) ;
#170 = VERTEX_POINT ( 'NONE', #426 ) ;
#171 = VERTEX_POINT ( 'NONE', #425 ) ;
#172 = VERTEX_POINT ( 'NONE', #424 ) ;
#173 = VERTEX_POINT ( 'NONE', #423 ) ;
#174 = VERTEX_POINT ( 'NONE', #422 ) ;
#175 = ORIENTED_EDGE ( 'NONE', *, *, #276, .T. ) ;
#176 = ORIENTED_EDGE ( 'NONE', *, *, #295, .T. ) ;
#177 = ORIENTED_EDGE ( 'NONE', *, *, #295, .F. ) ;
#178 = ORIENTED_EDGE ( 'NONE', *, *, #277, .F. ) ;
#179 = ORIENTED_EDGE ( 'NONE', *, *, #271, .T. ) ;
#180 = ORIENTED_EDGE ( 'NONE', *, *, #288, .F. ) ;
#181 = ORIENTED_EDGE ( 'NONE', *, *, #231, .T. ) ;
#182 = CLOSED_SHELL ( 'NONE', ( #215, #210, #216, #213, #218, #209, #217, #211, #214, #219, #220, #212 ) ) ;
#183 = ORIENTED_EDGE ( 'NONE', *, *, #291, .F. ) ;
#184 = ORIENTED_EDGE ( 'NONE', *, *, #291, .T. ) ;
#185 = ORIENTED_EDGE ( 'NONE', *, *, #294, .T. ) ;
#186 = ORIENTED_EDGE ( 'NONE', *, *, #248, .F. ) ;
#187 = ORIENTED_EDGE ( 'NONE', *, *, #279, .F. ) ;
#188 = ORIENTED_EDGE ( 'NONE', *, *, #289, .F. ) ;
#189 = ORIENTED_EDGE ( 'NONE', *, *, #301, .F. ) ;
#190 = ORIENTED_EDGE ( 'NONE', *, *, #231, .F. ) ;
#191 = ORIENTED_EDGE ( 'NONE', *, *, #228, .T. ) ;
#192 = ORIENTED_EDGE ( 'NONE', *, *, #238, .T. ) ;
#193 = ORIENTED_EDGE ( 'NONE', *, *, #232, .F. ) ;
#194 = ORIENTED_EDGE ( 'NONE', *, *, #301, .T. ) ;
#195 = ORIENTED_EDGE ( 'NONE', *, *, #232, .T. ) ;
#196 = ORIENTED_EDGE ( 'NONE', *, *, #275, .F. ) ;
#197 = ORIENTED_EDGE ( 'NONE', *, *, #271, .F. ) ;
#198 = ORIENTED_EDGE ( 'NONE', *, *, #296, .F. ) ;
#199 = ORIENTED_EDGE ( 'NONE', *, *, #272, .F. ) ;
#200 = ORIENTED_EDGE ( 'NONE', *, *, #272, .T. ) ;
#201 = ORIENTED_EDGE ( 'NONE', *, *, #299, .T. ) ;
#202 = ORIENTED_EDGE ( 'NONE', *, *, #277, .T. ) ;
#203 = ORIENTED_EDGE ( 'NONE', *, *, #270, .T. ) ;
#204 = ORIENTED_EDGE ( 'NONE', *, *, #269, .T. ) ;
#205 = ORIENTED_EDGE ( 'NONE', *, *, #276, .F. ) ;
#206 = ADVANCED_BREP_SHAPE_REPRESENTATION ( '¦¨v°úð ýð ºóþû òõ¨ªøúðû¹ývù òýõ°ýøù CDSD 90_38284', ( #208, #306 ), #310 ) ;
#207 = UNCERTAINTY_MEASURE_WITH_UNIT (LENGTH_MEASURE( 1.000000000000000100E-005 ), #235, 'distance_accuracy_value', 'NONE');
#208 = MANIFOLD_SOLID_BREP ( 'Âûðåç-Âûòÿíóòü1', #182 ) ;
#209 = ADVANCED_FACE ( 'NONE', ( #36 ), #421, .T. ) ;
#210 = ADVANCED_FACE ( 'NONE', ( #37 ), #415, .T. ) ;
#211 = ADVANCED_FACE ( 'NONE', ( #40, #43, #31 ), #410, .F. ) ;
#212 = ADVANCED_FACE ( 'NONE', ( #32, #30 ), #27, .F. ) ;
#213 = ADVANCED_FACE ( 'NONE', ( #34, #26, #42 ), #403, .T. ) ;
#214 = ADVANCED_FACE ( 'NONE', ( #35 ), #400, .F. ) ;
#215 = ADVANCED_FACE ( 'NONE', ( #28 ), #396, .F. ) ;
#216 = ADVANCED_FACE ( 'NONE', ( #24 ), #392, .T. ) ;
#217 = ADVANCED_FACE ( 'NONE', ( #29 ), #388, .F. ) ;
#218 = ADVANCED_FACE ( 'NONE', ( #159 ), #384, .T. ) ;
#219 = ADVANCED_FACE ( 'NONE', ( #158 ), #380, .T. ) ;
#220 = ADVANCED_FACE ( 'NONE', ( #157, #154 ), #152, .F. ) ;
#221 = AXIS2_PLACEMENT_3D ( 'NONE', #402, #398, #397 ) ;
#222 = AXIS2_PLACEMENT_3D ( 'NONE', #405, #406, #401 ) ;
#223 = AXIS2_PLACEMENT_3D ( 'NONE', #407, #411, #409 ) ;
#224 = AXIS2_PLACEMENT_3D ( 'NONE', #412, #418, #408 ) ;
#225 = AXIS2_PLACEMENT_3D ( 'NONE', #420, #414, #413 ) ;
#226 = AXIS2_PLACEMENT_3D ( 'NONE', #419, #417, #416 ) ;
#227 = AXIS2_PLACEMENT_3D ( 'NONE', #391, #382, #381 ) ;
#228 = EDGE_CURVE ( 'NONE', #174, #168, #155, .T. ) ;
#229 = AXIS2_PLACEMENT_3D ( 'NONE', #328, #327, #326 ) ;
#230 = AXIS2_PLACEMENT_3D ( 'NONE', #355, #354, #353 ) ;
#231 = EDGE_CURVE ( 'NONE', #166, #163, #25, .T. ) ;
#232 = EDGE_CURVE ( 'NONE', #164, #166, #153, .T. ) ;
#233 =( NAMED_UNIT ( * ) SI_UNIT ( $, .STERADIAN. ) SOLID_ANGLE_UNIT ( ) );
#234 =( NAMED_UNIT ( * ) PLANE_ANGLE_UNIT ( ) SI_UNIT ( $, .RADIAN. ) );
#235 =( LENGTH_UNIT ( ) NAMED_UNIT ( * ) SI_UNIT ( .MILLI., .METRE. ) );
#236 = CC_DESIGN_PERSON_AND_ORGANIZATION_ASSIGNMENT ( #96, #264, ( #23 ) ) ;
#237 = DIRECTION ( 'NONE',  ( 0.0000000000000000000, 0.0000000000000000000, 1.000000000000000000 ) ) ;
#238 = EDGE_CURVE ( 'NONE', #164, #170, #151, .T. ) ;
#239 = CARTESIAN_POINT ( 'NONE',  ( 1.734723475976807100E-015, 0.0000000000000000000, 17.49999999999999600 ) ) ;
#240 = CARTESIAN_POINT ( 'NONE',  ( 0.0000000000000000000, 0.0000000000000000000, 318.5000000000000600 ) ) ;
#241 = CARTESIAN_POINT ( 'NONE',  ( 0.0000000000000000000, 0.0000000000000000000, 0.0000000000000000000 ) ) ;
#242 = APPLICATION_PROTOCOL_DEFINITION ( 'international standard', 'config_control_design', 1994, #268 ) ;
#243 = DIRECTION ( 'NONE',  ( -0.0000000000000000000, -0.0000000000000000000, -1.000000000000000000 ) ) ;
#244 = CARTESIAN_POINT ( 'NONE',  ( 0.0000000000000000000, 0.8000000000000000400, 313.5000000000000600 ) ) ;
#245 = APPROVAL_ROLE ( '' ) ;
#246 = APPROVAL_STATUS ( 'not_yet_approved' ) ;
#247 = DATE_TIME_ROLE ( 'classification_date' ) ;
#248 = EDGE_CURVE ( 'NONE', #85, #166, #149, .T. ) ;
#249 = PERSON_AND_ORGANIZATION_ROLE ( 'classification_officer' ) ;
#250 = DIRECTION ( 'NONE',  ( 0.0000000000000000000, -1.000000000000000000, 0.0000000000000000000 ) ) ;
#251 = CARTESIAN_POINT ( 'NONE',  ( 101.0000000000000000, -14.00000000000000000, 331.0000000000000000 ) ) ;
#252 = SECURITY_CLASSIFICATION_LEVEL ( 'unclassified' ) ;
#253 = PERSON_AND_ORGANIZATION_ROLE ( 'design_supplier' ) ;
#254 = PERSON_AND_ORGANIZATION_ROLE ( 'creator' ) ;
#255 = APPROVAL_ROLE ( '' ) ;
#256 = APPROVAL_STATUS ( 'not_yet_approved' ) ;
#257 = DATE_TIME_ROLE ( 'creation_date' ) ;
#258 = DIRECTION ( 'NONE',  ( 0.0000000000000000000, -1.000000000000000000, 0.0000000000000000000 ) ) ;
#259 = PERSON_AND_ORGANIZATION_ROLE ( 'creator' ) ;
#260 = APPROVAL_ROLE ( '' ) ;
#261 = APPROVAL_STATUS ( 'not_yet_approved' ) ;
#262 = APPLICATION_PROTOCOL_DEFINITION ( 'international standard', 'config_control_design', 1994, #263 ) ;
#263 = APPLICATION_CONTEXT ( 'configuration controlled 3d designs of mechanical parts and assemblies' ) ;
#264 = PERSON_AND_ORGANIZATION_ROLE ( 'design_owner' ) ;
#265 = MECHANICAL_CONTEXT ( 'NONE', #268, 'mechanical' ) ;
#266 = DIRECTION ( 'NONE',  ( 1.000000000000000000, 0.0000000000000000000, 0.0000000000000000000 ) ) ;
#267 = CARTESIAN_POINT ( 'NONE',  ( 101.0000000000000000, 0.0000000000000000000, 331.0000000000000000 ) ) ;
#268 = APPLICATION_CONTEXT ( 'configuration controlled 3d designs of mechanical parts and assemblies' ) ;
#269 = EDGE_CURVE ( 'NONE', #167, #85, #145, .T. ) ;
#270 = EDGE_CURVE ( 'NONE', #167, #164, #147, .T. ) ;
#271 = EDGE_CURVE ( 'NONE', #103, #103, #141, .T. ) ;
#272 = EDGE_CURVE ( 'NONE', #100, #100, #137, .T. ) ;
#273 = AXIS2_PLACEMENT_3D ( 'NONE', #332, #331, #329 ) ;
#274 = CC_DESIGN_PERSON_AND_ORGANIZATION_ASSIGNMENT ( #75, #254, ( #317 ) ) ;
#275 = EDGE_CURVE ( 'NONE', #171, #85, #139, .T. ) ;
#276 = EDGE_CURVE ( 'NONE', #173, #171, #138, .T. ) ;
#277 = EDGE_CURVE ( 'NONE', #173, #167, #143, .T. ) ;
#278 = EDGE_CURVE ( 'NONE', #165, #171, #133, .T. ) ;
#279 = EDGE_CURVE ( 'NONE', #161, #165, #131, .T. ) ;
#280 = CC_DESIGN_DATE_AND_TIME_ASSIGNMENT ( #69, #247, ( #313 ) ) ;
#281 = CC_DESIGN_APPROVAL ( #284, ( #315 ) ) ;
#282 = AXIS2_PLACEMENT_3D ( 'NONE', #376, #379, #383 ) ;
#283 = CC_DESIGN_PERSON_AND_ORGANIZATION_ASSIGNMENT ( #88, #259, ( #315 ) ) ;
#284 = APPROVAL ( #261, 'UNSPECIFIED' ) ;
#285 = PRODUCT_RELATED_PRODUCT_CATEGORY ( 'detail', '', ( #23 ) ) ;
#286 = EDGE_CURVE ( 'NONE', #161, #173, #134, .T. ) ;
#287 = EDGE_CURVE ( 'NONE', #118, #165, #127, .T. ) ;
#288 = EDGE_CURVE ( 'NONE', #169, #118, #125, .T. ) ;
#289 = EDGE_CURVE ( 'NONE', #169, #161, #129, .T. ) ;
#290 = CC_DESIGN_SECURITY_CLASSIFICATION ( #313, ( #317 ) ) ;
#291 = EDGE_CURVE ( 'NONE', #118, #172, #121, .T. ) ;
#292 = EDGE_CURVE ( 'NONE', #162, #172, #119, .T. ) ;
#293 = APPROVAL ( #246, 'UNSPECIFIED' ) ;
#294 = EDGE_CURVE ( 'NONE', #169, #162, #123, .T. ) ;
#295 = EDGE_CURVE ( 'NONE', #99, #99, #116, .T. ) ;
#296 = EDGE_CURVE ( 'NONE', #98, #98, #111, .T. ) ;
#297 = EDGE_CURVE ( 'NONE', #172, #168, #113, .T. ) ;
#298 = EDGE_CURVE ( 'NONE', #162, #174, #112, .T. ) ;
#299 = EDGE_CURVE ( 'NONE', #168, #163, #108, .T. ) ;
#300 = EDGE_CURVE ( 'NONE', #174, #170, #107, .T. ) ;
#301 = EDGE_CURVE ( 'NONE', #170, #163, #105, .T. ) ;
#302 = CC_DESIGN_APPROVAL ( #293, ( #313 ) ) ;
#303 = AXIS2_PLACEMENT_3D ( 'NONE', #387, #378, #377 ) ;
#304 = AXIS2_PLACEMENT_3D ( 'NONE', #358, #357, #356 ) ;
#305 = CC_DESIGN_PERSON_AND_ORGANIZATION_ASSIGNMENT ( #73, #249, ( #313 ) ) ;
#306 = AXIS2_PLACEMENT_3D ( 'NONE', #241, #237, #266 ) ;
#307 = AXIS2_PLACEMENT_3D ( 'NONE', #395, #386, #385 ) ;
#308 = AXIS2_PLACEMENT_3D ( 'NONE', #399, #390, #389 ) ;
#309 = AXIS2_PLACEMENT_3D ( 'NONE', #404, #394, #393 ) ;
#310 =( GEOMETRIC_REPRESENTATION_CONTEXT ( 3 ) GLOBAL_UNCERTAINTY_ASSIGNED_CONTEXT ( ( #207 ) ) GLOBAL_UNIT_ASSIGNED_CONTEXT ( ( #235, #234, #233 ) ) REPRESENTATION_CONTEXT ( 'NONE', 'WORKASPACE' ) );
#311 = CC_DESIGN_PERSON_AND_ORGANIZATION_ASSIGNMENT ( #74, #253, ( #317 ) ) ;
#312 = CC_DESIGN_DATE_AND_TIME_ASSIGNMENT ( #83, #257, ( #315 ) ) ;
#313 = SECURITY_CLASSIFICATION ( '', '', #252 ) ;
#314 = CC_DESIGN_APPROVAL ( #316, ( #317 ) ) ;
#315 = PRODUCT_DEFINITION ( 'UNKNOWN', '', #317, #319 ) ;
#316 = APPROVAL ( #256, 'UNSPECIFIED' ) ;
#317 = PRODUCT_DEFINITION_FORMATION_WITH_SPECIFIED_SOURCE ( 'ANY', '', #23, .NOT_KNOWN. ) ;
#318 = PRODUCT_DEFINITION_SHAPE ( 'NONE', 'NONE',  #315 ) ;
#319 = DESIGN_CONTEXT ( 'detailed design', #263, 'design' ) ;
#320 = CARTESIAN_POINT ( 'NONE',  ( 101.0000000000000000, 0.0000000000000000000, 0.0000000000000000000 ) ) ;
#321 = DIRECTION ( 'NONE',  ( -1.000000000000000000, 0.0000000000000000000, 0.0000000000000000000 ) ) ;
#322 = DIRECTION ( 'NONE',  ( 1.000000000000000000, 0.0000000000000000000, 0.0000000000000000000 ) ) ;
#323 = DIRECTION ( 'NONE',  ( -0.0000000000000000000, -0.0000000000000000000, -1.000000000000000000 ) ) ;
#324 = CARTESIAN_POINT ( 'NONE',  ( 1.734723475976807100E-015, 0.8000000000000000400, 17.49999999999999600 ) ) ;
#325 = DIRECTION ( 'NONE',  ( 1.000000000000000000, 0.0000000000000000000, 0.0000000000000000000 ) ) ;
#326 = DIRECTION ( 'NONE',  ( 0.0000000000000000000, 0.0000000000000000000, 1.000000000000000000 ) ) ;
#327 = DIRECTION ( 'NONE',  ( -0.0000000000000000000, -1.000000000000000000, -0.0000000000000000000 ) ) ;
#328 = CARTESIAN_POINT ( 'NONE',  ( 1.734723475976807100E-015, 0.0000000000000000000, 14.99999999999999300 ) ) ;
#329 = DIRECTION ( 'NONE',  ( 0.0000000000000000000, 0.0000000000000000000, 1.000000000000000000 ) ) ;
#330 = CARTESIAN_POINT ( 'NONE',  ( -101.0000000000000000, -14.00000000000000000, 331.0000000000000000 ) ) ;
#331 = DIRECTION ( 'NONE',  ( -0.0000000000000000000, -1.000000000000000000, -0.0000000000000000000 ) ) ;
#332 = CARTESIAN_POINT ( 'NONE',  ( 0.0000000000000000000, 0.0000000000000000000, 316.0000000000000600 ) ) ;
#333 = DIRECTION ( 'NONE',  ( -1.000000000000000000, 0.0000000000000000000, 0.0000000000000000000 ) ) ;
#334 = CARTESIAN_POINT ( 'NONE',  ( -101.0000000000000000, 0.0000000000000000000, 331.0000000000000000 ) ) ;
#335 = CARTESIAN_POINT ( 'NONE',  ( -101.0000000000000000, -14.00000000000000000, 0.0000000000000000000 ) ) ;
#336 = CARTESIAN_POINT ( 'NONE',  ( -101.0000000000000000, 0.0000000000000000000, 0.0000000000000000000 ) ) ;
#337 = DIRECTION ( 'NONE',  ( -0.0000000000000000000, 1.000000000000000000, -0.0000000000000000000 ) ) ;
#338 = DIRECTION ( 'NONE',  ( -0.0000000000000000000, -0.0000000000000000000, -1.000000000000000000 ) ) ;
#339 = DIRECTION ( 'NONE',  ( 0.0000000000000000000, 1.000000000000000000, 0.0000000000000000000 ) ) ;
#340 = CARTESIAN_POINT ( 'NONE',  ( -101.0000000000000000, 0.0000000000000000000, 331.0000000000000000 ) ) ;
#341 = DIRECTION ( 'NONE',  ( -0.0000000000000000000, 1.000000000000000000, -0.0000000000000000000 ) ) ;
#342 = DIRECTION ( 'NONE',  ( -0.0000000000000000000, -0.0000000000000000000, -1.000000000000000000 ) ) ;
#343 = CARTESIAN_POINT ( 'NONE',  ( -101.0000000000000000, 0.0000000000000000000, 331.0000000000000000 ) ) ;
#344 = CARTESIAN_POINT ( 'NONE',  ( -101.8000000000000000, -14.00000000000000000, 331.0000000000000000 ) ) ;
#345 = DIRECTION ( 'NONE',  ( 0.0000000000000000000, 1.000000000000000000, 0.0000000000000000000 ) ) ;
#346 = CARTESIAN_POINT ( 'NONE',  ( -101.0000000000000000, 0.0000000000000000000, 0.0000000000000000000 ) ) ;
#347 = CARTESIAN_POINT ( 'NONE',  ( -101.8000000000000000, 0.0000000000000000000, 0.0000000000000000000 ) ) ;
#348 = DIRECTION ( 'NONE',  ( 1.000000000000000000, 0.0000000000000000000, 0.0000000000000000000 ) ) ;
#349 = DIRECTION ( 'NONE',  ( -0.0000000000000000000, -0.0000000000000000000, -1.000000000000000000 ) ) ;
#350 = CARTESIAN_POINT ( 'NONE',  ( -101.0000000000000000, -14.00000000000000000, 331.0000000000000000 ) ) ;
#351 = CARTESIAN_POINT ( 'NONE',  ( -101.0000000000000000, 0.8000000000000000400, 331.0000000000000000 ) ) ;
#352 = DIRECTION ( 'NONE',  ( 1.000000000000000000, 0.0000000000000000000, 0.0000000000000000000 ) ) ;
#353 = DIRECTION ( 'NONE',  ( 0.0000000000000000000, 0.0000000000000000000, 1.000000000000000000 ) ) ;
#354 = DIRECTION ( 'NONE',  ( 0.0000000000000000000, 1.000000000000000000, 0.0000000000000000000 ) ) ;
#355 = CARTESIAN_POINT ( 'NONE',  ( 1.734723475976807100E-015, 0.8000000000000000400, 14.99999999999999300 ) ) ;
#356 = DIRECTION ( 'NONE',  ( 0.0000000000000000000, 0.0000000000000000000, -1.000000000000000000 ) ) ;
#357 = DIRECTION ( 'NONE',  ( -0.0000000000000000000, 1.000000000000000000, -0.0000000000000000000 ) ) ;
#358 = CARTESIAN_POINT ( 'NONE',  ( 0.0000000000000000000, 0.8000000000000000400, 316.0000000000000600 ) ) ;
#359 = CARTESIAN_POINT ( 'NONE',  ( -101.8000000000000000, 0.0000000000000000000, 331.0000000000000000 ) ) ;
#360 = CARTESIAN_POINT ( 'NONE',  ( -101.8000000000000000, 0.8000000000000000400, 331.0000000000000000 ) ) ;
#361 = DIRECTION ( 'NONE',  ( -0.0000000000000000000, -1.000000000000000000, 0.0000000000000000000 ) ) ;
#362 = DIRECTION ( 'NONE',  ( -0.0000000000000000000, -0.0000000000000000000, -1.000000000000000000 ) ) ;
#363 = CARTESIAN_POINT ( 'NONE',  ( -101.0000000000000000, 0.8000000000000000400, 0.0000000000000000000 ) ) ;
#364 = CARTESIAN_POINT ( 'NONE',  ( 101.8000000000000000, 0.8000000000000000400, 331.0000000000000000 ) ) ;
#365 = DIRECTION ( 'NONE',  ( -0.0000000000000000000, -1.000000000000000000, 0.0000000000000000000 ) ) ;
#366 = DIRECTION ( 'NONE',  ( -1.000000000000000000, 0.0000000000000000000, 0.0000000000000000000 ) ) ;
#367 = CARTESIAN_POINT ( 'NONE',  ( 101.8000000000000000, 0.0000000000000000000, 331.0000000000000000 ) ) ;
#368 = DIRECTION ( 'NONE',  ( -0.0000000000000000000, -0.0000000000000000000, -1.000000000000000000 ) ) ;
#369 = CARTESIAN_POINT ( 'NONE',  ( 101.8000000000000000, 0.0000000000000000000, 0.0000000000000000000 ) ) ;
#370 = DIRECTION ( 'NONE',  ( -0.0000000000000000000, -0.0000000000000000000, -1.000000000000000000 ) ) ;
#371 = CARTESIAN_POINT ( 'NONE',  ( 101.0000000000000000, 0.0000000000000000000, 331.0000000000000000 ) ) ;
#372 = CARTESIAN_POINT ( 'NONE',  ( 101.8000000000000000, -14.00000000000000000, 331.0000000000000000 ) ) ;
#373 = CARTESIAN_POINT ( 'NONE',  ( 101.8000000000000000, -14.00000000000000000, 331.0000000000000000 ) ) ;
#374 = CARTESIAN_POINT ( 'NONE',  ( 101.8000000000000000, -14.00000000000000000, 0.0000000000000000000 ) ) ;
#375 = DIRECTION ( 'NONE',  ( -1.000000000000000000, 0.0000000000000000000, 0.0000000000000000000 ) ) ;
#376 = CARTESIAN_POINT ( 'NONE',  ( 1.734723475976807100E-015, -14.00099999999999900, 14.99999999999999300 ) ) ;
#377 = DIRECTION ( 'NONE',  ( -1.000000000000000000, 0.0000000000000000000, 0.0000000000000000000 ) ) ;
#378 = DIRECTION ( 'NONE',  ( -0.0000000000000000000, 0.0000000000000000000, -1.000000000000000000 ) ) ;
#379 = DIRECTION ( 'NONE',  ( -0.0000000000000000000, 1.000000000000000000, -0.0000000000000000000 ) ) ;
#380 = PLANE ( 'NONE',  #303 ) ;
#381 = DIRECTION ( 'NONE',  ( 0.0000000000000000000, 0.0000000000000000000, 1.000000000000000000 ) ) ;
#382 = DIRECTION ( 'NONE',  ( -1.000000000000000000, 0.0000000000000000000, 0.0000000000000000000 ) ) ;
#383 = DIRECTION ( 'NONE',  ( 0.0000000000000000000, 0.0000000000000000000, 1.000000000000000000 ) ) ;
#384 = PLANE ( 'NONE',  #227 ) ;
#385 = DIRECTION ( 'NONE',  ( 0.0000000000000000000, 0.0000000000000000000, 1.000000000000000000 ) ) ;
#386 = DIRECTION ( 'NONE',  ( -1.000000000000000000, 0.0000000000000000000, 0.0000000000000000000 ) ) ;
#387 = CARTESIAN_POINT ( 'NONE',  ( 0.0000000000000000000, 0.0000000000000000000, 0.0000000000000000000 ) ) ;
#388 = PLANE ( 'NONE',  #307 ) ;
#389 = DIRECTION ( 'NONE',  ( -0.0000000000000000000, 0.0000000000000000000, -1.000000000000000000 ) ) ;
#390 = DIRECTION ( 'NONE',  ( 1.000000000000000000, 0.0000000000000000000, -0.0000000000000000000 ) ) ;
#391 = CARTESIAN_POINT ( 'NONE',  ( -101.8000000000000000, 0.0000000000000000000, 331.0000000000000000 ) ) ;
#392 = PLANE ( 'NONE',  #308 ) ;
#393 = DIRECTION ( 'NONE',  ( -0.0000000000000000000, 0.0000000000000000000, -1.000000000000000000 ) ) ;
#394 = DIRECTION ( 'NONE',  ( 1.000000000000000000, 0.0000000000000000000, -0.0000000000000000000 ) ) ;
#395 = CARTESIAN_POINT ( 'NONE',  ( -101.0000000000000000, 0.0000000000000000000, 331.0000000000000000 ) ) ;
#396 = PLANE ( 'NONE',  #309 ) ;
#397 = DIRECTION ( 'NONE',  ( -1.000000000000000000, 0.0000000000000000000, 0.0000000000000000000 ) ) ;
#398 = DIRECTION ( 'NONE',  ( -0.0000000000000000000, 0.0000000000000000000, -1.000000000000000000 ) ) ;
#399 = CARTESIAN_POINT ( 'NONE',  ( 101.8000000000000000, 0.0000000000000000000, 331.0000000000000000 ) ) ;
#400 = PLANE ( 'NONE',  #221 ) ;
#401 = DIRECTION ( 'NONE',  ( 0.0000000000000000000, -0.0000000000000000000, 1.000000000000000000 ) ) ;
#402 = CARTESIAN_POINT ( 'NONE',  ( 0.0000000000000000000, 0.0000000000000000000, 331.0000000000000000 ) ) ;
#403 = PLANE ( 'NONE',  #222 ) ;
#404 = CARTESIAN_POINT ( 'NONE',  ( 101.0000000000000000, 0.0000000000000000000, 331.0000000000000000 ) ) ;
#405 = CARTESIAN_POINT ( 'NONE',  ( -101.0000000000000000, 0.8000000000000000400, 331.0000000000000000 ) ) ;
#406 = DIRECTION ( 'NONE',  ( 0.0000000000000000000, 1.000000000000000000, 0.0000000000000000000 ) ) ;
#407 = CARTESIAN_POINT ( 'NONE',  ( 0.0000000000000000000, -14.00099999999999900, 316.0000000000000600 ) ) ;
#408 = DIRECTION ( 'NONE',  ( 0.0000000000000000000, -0.0000000000000000000, 1.000000000000000000 ) ) ;
#409 = DIRECTION ( 'NONE',  ( 0.0000000000000000000, 0.0000000000000000000, 1.000000000000000000 ) ) ;
#410 = PLANE ( 'NONE',  #224 ) ;
#411 = DIRECTION ( 'NONE',  ( -0.0000000000000000000, 1.000000000000000000, -0.0000000000000000000 ) ) ;
#412 = CARTESIAN_POINT ( 'NONE',  ( -101.0000000000000000, 0.0000000000000000000, 331.0000000000000000 ) ) ;
#413 = DIRECTION ( 'NONE',  ( 0.0000000000000000000, -0.0000000000000000000, -1.000000000000000000 ) ) ;
#414 = DIRECTION ( 'NONE',  ( 0.0000000000000000000, -1.000000000000000000, 0.0000000000000000000 ) ) ;
#415 = PLANE ( 'NONE',  #225 ) ;
#416 = DIRECTION ( 'NONE',  ( 0.0000000000000000000, -0.0000000000000000000, -1.000000000000000000 ) ) ;
#417 = DIRECTION ( 'NONE',  ( 0.0000000000000000000, -1.000000000000000000, 0.0000000000000000000 ) ) ;
#418 = DIRECTION ( 'NONE',  ( 0.0000000000000000000, 1.000000000000000000, 0.0000000000000000000 ) ) ;
#419 = CARTESIAN_POINT ( 'NONE',  ( -101.0000000000000000, -14.00000000000000000, 331.0000000000000000 ) ) ;
#420 = CARTESIAN_POINT ( 'NONE',  ( 101.8000000000000000, -14.00000000000000000, 331.0000000000000000 ) ) ;
#421 = PLANE ( 'NONE',  #226 ) ;
#422 = CARTESIAN_POINT ( 'NONE',  ( 101.0000000000000000, 0.0000000000000000000, 331.0000000000000000 ) ) ;
#423 = CARTESIAN_POINT ( 'NONE',  ( -101.8000000000000000, 0.8000000000000000400, 331.0000000000000000 ) ) ;
#424 = CARTESIAN_POINT ( 'NONE',  ( -101.0000000000000000, 0.0000000000000000000, 0.0000000000000000000 ) ) ;
#425 = CARTESIAN_POINT ( 'NONE',  ( -101.8000000000000000, 0.8000000000000000400, 0.0000000000000000000 ) ) ;
#426 = CARTESIAN_POINT ( 'NONE',  ( 101.0000000000000000, -14.00000000000000000, 331.0000000000000000 ) ) ;
#427 = CARTESIAN_POINT ( 'NONE',  ( -101.0000000000000000, -14.00000000000000000, 331.0000000000000000 ) ) ;
#428 = CARTESIAN_POINT ( 'NONE',  ( 101.8000000000000000, 0.8000000000000000400, 331.0000000000000000 ) ) ;
#429 = CARTESIAN_POINT ( 'NONE',  ( -101.0000000000000000, -14.00000000000000000, 0.0000000000000000000 ) ) ;
#430 = CARTESIAN_POINT ( 'NONE',  ( 101.8000000000000000, 0.8000000000000000400, 0.0000000000000000000 ) ) ;
#431 = CARTESIAN_POINT ( 'NONE',  ( 101.0000000000000000, 0.0000000000000000000, 0.0000000000000000000 ) ) ;
#432 = CARTESIAN_POINT ( 'NONE',  ( 101.0000000000000000, -14.00000000000000000, 0.0000000000000000000 ) ) ;
#433 = CARTESIAN_POINT ( 'NONE',  ( 101.8000000000000000, -14.00000000000000000, 331.0000000000000000 ) ) ;
#434 = CARTESIAN_POINT ( 'NONE',  ( -101.8000000000000000, -14.00000000000000000, 331.0000000000000000 ) ) ;
#435 = CARTESIAN_POINT ( 'NONE',  ( 101.8000000000000000, -14.00000000000000000, 0.0000000000000000000 ) ) ;
#436 = CARTESIAN_POINT ( 'NONE',  ( -101.0000000000000000, 0.0000000000000000000, 331.0000000000000000 ) ) ;
#437 = CARTESIAN_POINT ( 'NONE',  ( -101.8000000000000000, -14.00000000000000000, 0.0000000000000000000 ) ) ;
ENDSEC;
END-ISO-10303-21;
