ISO-10303-21;
HEADER;
FILE_DESCRIPTION (( 'STEP AP203' ),
    '1' );
FILE_NAME ('Êðûøêà íà îòâåòâèòåëü Ò-îáðàçíûé âåðòèêàëüíûé TD_38301.STEP',
    '2012-11-15T11:28:02',
    ( 'Àñååâ' ),
    ( '' ),
    'SwSTEP 2.0',
    'SolidWorks 2012',
    '' );
FILE_SCHEMA (( 'CONFIG_CONTROL_DESIGN' ));
ENDSEC;

DATA;
#1 = CARTESIAN_POINT ( 'NONE',  ( 41.59999999999998700, -14.00000000000000000, 0.0000000000000000000 ) ) ;
#2 = ORIENTED_EDGE ( 'NONE', *, *, #283, .T. ) ;
#3 = ORIENTED_EDGE ( 'NONE', *, *, #272, .F. ) ;
#4 = ORIENTED_EDGE ( 'NONE', *, *, #264, .T. ) ;
#5 = ORIENTED_EDGE ( 'NONE', *, *, #276, .T. ) ;
#6 = ORIENTED_EDGE ( 'NONE', *, *, #267, .T. ) ;
#7 = ORIENTED_EDGE ( 'NONE', *, *, #262, .T. ) ;
#8 = ORIENTED_EDGE ( 'NONE', *, *, #282, .T. ) ;
#9 = ORIENTED_EDGE ( 'NONE', *, *, #268, .F. ) ;
#10 = ORIENTED_EDGE ( 'NONE', *, *, #268, .T. ) ;
#11 = ORIENTED_EDGE ( 'NONE', *, *, #271, .F. ) ;
#12 = ORIENTED_EDGE ( 'NONE', *, *, #277, .F. ) ;
#13 = ORIENTED_EDGE ( 'NONE', *, *, #269, .F. ) ;
#14 = ORIENTED_EDGE ( 'NONE', *, *, #288, .T. ) ;
#15 = ORIENTED_EDGE ( 'NONE', *, *, #272, .T. ) ;
#16 = ORIENTED_EDGE ( 'NONE', *, *, #271, .T. ) ;
#17 = ORIENTED_EDGE ( 'NONE', *, *, #270, .T. ) ;
#18 = ORIENTED_EDGE ( 'NONE', *, *, #287, .F. ) ;
#19 = ORIENTED_EDGE ( 'NONE', *, *, #263, .T. ) ;
#20 = ORIENTED_EDGE ( 'NONE', *, *, #278, .F. ) ;
#21 = ORIENTED_EDGE ( 'NONE', *, *, #279, .F. ) ;
#22 = LINE ( 'NONE', #117, #29 ) ;
#23 = LINE ( 'NONE', #114, #24 ) ;
#24 = VECTOR ( 'NONE', #113, 1000.000000000000000 ) ;
#25 = CIRCLE ( 'NONE', #260, 2.500000000000002200 ) ;
#26 = LINE ( 'NONE', #116, #27 ) ;
#27 = VECTOR ( 'NONE', #115, 1000.000000000000000 ) ;
#28 = LINE ( 'NONE', #129, #363 ) ;
#29 = VECTOR ( 'NONE', #118, 1000.000000000000000 ) ;
#30 = LINE ( 'NONE', #119, #34 ) ;
#31 = LINE ( 'NONE', #120, #33 ) ;
#32 = CIRCLE ( 'NONE', #259, 2.500000000000002200 ) ;
#33 = VECTOR ( 'NONE', #130, 1000.000000000000000 ) ;
#34 = VECTOR ( 'NONE', #128, 1000.000000000000000 ) ;
#35 = LINE ( 'NONE', #131, #36 ) ;
#36 = VECTOR ( 'NONE', #133, 1000.000000000000000 ) ;
#37 = EDGE_LOOP ( 'NONE', ( #4 ) ) ;
#38 = CARTESIAN_POINT ( 'NONE',  ( 1.734723475976807100E-015, 0.5999999999999999800, 14.99999999999999300 ) ) ;
#39 = DIRECTION ( 'NONE',  ( 0.0000000000000000000, 1.000000000000000000, 0.0000000000000000000 ) ) ;
#40 = ADVANCED_BREP_SHAPE_REPRESENTATION ( '¦¨v°úð ýð þªòõªòøªõû¹ T-þñ¨ð÷ývù òõ¨ªøúðû¹ývù TD_38301', ( #42, #233 ), #234 ) ;
#41 = UNCERTAINTY_MEASURE_WITH_UNIT (LENGTH_MEASURE( 1.000000000000000100E-005 ), #206, 'distance_accuracy_value', 'NONE');
#42 = MANIFOLD_SOLID_BREP ( 'Âûðåç-Âûòÿíóòü1', #333 ) ;
#43 = CARTESIAN_POINT ( 'NONE',  ( -40.99999999999997900, 0.5999999999999999800, 340.0000000000000000 ) ) ;
#44 = DIRECTION ( 'NONE',  ( -1.000000000000000000, 0.0000000000000000000, 0.0000000000000000000 ) ) ;
#45 = CARTESIAN_POINT ( 'NONE',  ( 41.59999999999998700, 0.0000000000000000000, 340.0000000000000000 ) ) ;
#46 = DIRECTION ( 'NONE',  ( 1.000000000000000000, 0.0000000000000000000, 0.0000000000000000000 ) ) ;
#47 = DIRECTION ( 'NONE',  ( -1.000000000000000000, 0.0000000000000000000, 0.0000000000000000000 ) ) ;
#48 = CARTESIAN_POINT ( 'NONE',  ( -41.59999999999998700, 0.5999999999999999800, 340.0000000000000000 ) ) ;
#49 = DIRECTION ( 'NONE',  ( -0.0000000000000000000, -0.0000000000000000000, -1.000000000000000000 ) ) ;
#50 = CARTESIAN_POINT ( 'NONE',  ( 41.59999999999998700, 0.0000000000000000000, 0.0000000000000000000 ) ) ;
#51 = DIRECTION ( 'NONE',  ( -0.0000000000000000000, -1.000000000000000000, 0.0000000000000000000 ) ) ;
#52 = CARTESIAN_POINT ( 'NONE',  ( 41.59999999999998700, -14.00000000000000000, 340.0000000000000000 ) ) ;
#53 = CARTESIAN_POINT ( 'NONE',  ( 41.59999999999998700, 0.5999999999999999800, 340.0000000000000000 ) ) ;
#54 = DIRECTION ( 'NONE',  ( -0.0000000000000000000, -0.0000000000000000000, -1.000000000000000000 ) ) ;
#55 = DIRECTION ( 'NONE',  ( -0.0000000000000000000, -0.0000000000000000000, -1.000000000000000000 ) ) ;
#56 = CARTESIAN_POINT ( 'NONE',  ( -40.99999999999997900, 0.5999999999999999800, 0.0000000000000000000 ) ) ;
#57 = DIRECTION ( 'NONE',  ( 1.000000000000000000, 0.0000000000000000000, 0.0000000000000000000 ) ) ;
#58 = CARTESIAN_POINT ( 'NONE',  ( 41.59999999999998700, 0.5999999999999999800, 340.0000000000000000 ) ) ;
#59 = DIRECTION ( 'NONE',  ( -0.0000000000000000000, -0.0000000000000000000, -1.000000000000000000 ) ) ;
#60 = CARTESIAN_POINT ( 'NONE',  ( -41.59999999999998700, -14.00000000000000000, 0.0000000000000000000 ) ) ;
#61 = CARTESIAN_POINT ( 'NONE',  ( 40.99999999999997900, -14.00000000000000000, 340.0000000000000000 ) ) ;
#62 = CARTESIAN_POINT ( 'NONE',  ( 2.653208575337321500E-015, 0.5999999999999999800, 325.0000000000000600 ) ) ;
#63 = DIRECTION ( 'NONE',  ( -0.0000000000000000000, 1.000000000000000000, -0.0000000000000000000 ) ) ;
#64 = DIRECTION ( 'NONE',  ( 0.0000000000000000000, 0.0000000000000000000, -1.000000000000000000 ) ) ;
#65 = DIRECTION ( 'NONE',  ( -0.0000000000000000000, -1.000000000000000000, 0.0000000000000000000 ) ) ;
#66 = CARTESIAN_POINT ( 'NONE',  ( 41.59999999999998700, -14.00000000000000000, 340.0000000000000000 ) ) ;
#67 = CARTESIAN_POINT ( 'NONE',  ( -40.99999999999997900, 0.0000000000000000000, 0.0000000000000000000 ) ) ;
#68 = CARTESIAN_POINT ( 'NONE',  ( -40.99999999999997900, 0.0000000000000000000, 340.0000000000000000 ) ) ;
#69 = CARTESIAN_POINT ( 'NONE',  ( 40.99999999999997900, 0.0000000000000000000, 0.0000000000000000000 ) ) ;
#70 = CARTESIAN_POINT ( 'NONE',  ( -41.59999999999998700, 0.5999999999999999800, 340.0000000000000000 ) ) ;
#71 = CARTESIAN_POINT ( 'NONE',  ( -40.99999999999997900, -14.00000000000000000, 340.0000000000000000 ) ) ;
#72 = CARTESIAN_POINT ( 'NONE',  ( 41.59999999999998700, -14.00000000000000000, 0.0000000000000000000 ) ) ;
#73 = CARTESIAN_POINT ( 'NONE',  ( 40.99999999999997900, -14.00000000000000000, 0.0000000000000000000 ) ) ;
#74 = CARTESIAN_POINT ( 'NONE',  ( 40.99999999999997900, 0.0000000000000000000, 340.0000000000000000 ) ) ;
#75 = CARTESIAN_POINT ( 'NONE',  ( 41.59999999999998700, 0.5999999999999999800, 0.0000000000000000000 ) ) ;
#76 = CARTESIAN_POINT ( 'NONE',  ( -40.99999999999997900, -14.00000000000000000, 0.0000000000000000000 ) ) ;
#77 = CARTESIAN_POINT ( 'NONE',  ( -41.59999999999998700, -14.00000000000000000, 340.0000000000000000 ) ) ;
#78 = CARTESIAN_POINT ( 'NONE',  ( -41.59999999999998700, 0.5999999999999999800, 0.0000000000000000000 ) ) ;
#79 = PLANE ( 'NONE',  #256 ) ;
#80 = CARTESIAN_POINT ( 'NONE',  ( -41.59999999999998700, 0.0000000000000000000, 340.0000000000000000 ) ) ;
#81 = DIRECTION ( 'NONE',  ( 0.0000000000000000000, 0.0000000000000000000, 1.000000000000000000 ) ) ;
#82 = CARTESIAN_POINT ( 'NONE',  ( -40.99999999999997900, 0.0000000000000000000, 340.0000000000000000 ) ) ;
#83 = DIRECTION ( 'NONE',  ( -1.000000000000000000, 0.0000000000000000000, 0.0000000000000000000 ) ) ;
#84 = DIRECTION ( 'NONE',  ( 0.0000000000000000000, 0.0000000000000000000, 1.000000000000000000 ) ) ;
#85 = PLANE ( 'NONE',  #255 ) ;
#86 = DIRECTION ( 'NONE',  ( -0.0000000000000000000, 1.000000000000000000, -0.0000000000000000000 ) ) ;
#87 = DIRECTION ( 'NONE',  ( -1.000000000000000000, 0.0000000000000000000, 0.0000000000000000000 ) ) ;
#88 = DIRECTION ( 'NONE',  ( 0.0000000000000000000, 0.0000000000000000000, 1.000000000000000000 ) ) ;
#89 = CARTESIAN_POINT ( 'NONE',  ( 2.653208575337321500E-015, -14.00099999999999900, 325.0000000000000600 ) ) ;
#90 = CARTESIAN_POINT ( 'NONE',  ( 41.59999999999998700, -14.00000000000000000, 340.0000000000000000 ) ) ;
#91 = PLANE ( 'NONE',  #253 ) ;
#92 = DIRECTION ( 'NONE',  ( 0.0000000000000000000, 1.000000000000000000, 0.0000000000000000000 ) ) ;
#93 = DIRECTION ( 'NONE',  ( 0.0000000000000000000, -1.000000000000000000, 0.0000000000000000000 ) ) ;
#94 = DIRECTION ( 'NONE',  ( 0.0000000000000000000, -0.0000000000000000000, -1.000000000000000000 ) ) ;
#95 = CARTESIAN_POINT ( 'NONE',  ( -40.99999999999997900, 0.0000000000000000000, 340.0000000000000000 ) ) ;
#96 = DIRECTION ( 'NONE',  ( -0.0000000000000000000, 1.000000000000000000, -0.0000000000000000000 ) ) ;
#97 = PLANE ( 'NONE',  #252 ) ;
#98 = DIRECTION ( 'NONE',  ( 0.0000000000000000000, 0.0000000000000000000, 1.000000000000000000 ) ) ;
#99 = DIRECTION ( 'NONE',  ( 0.0000000000000000000, -0.0000000000000000000, 1.000000000000000000 ) ) ;
#100 = CARTESIAN_POINT ( 'NONE',  ( 1.734723475976807100E-015, -14.00099999999999900, 14.99999999999999300 ) ) ;
#101 = DIRECTION ( 'NONE',  ( 0.0000000000000000000, 1.000000000000000000, 0.0000000000000000000 ) ) ;
#102 = CARTESIAN_POINT ( 'NONE',  ( -40.99999999999997900, 0.5999999999999999800, 340.0000000000000000 ) ) ;
#103 = PLANE ( 'NONE',  #240 ) ;
#104 = PLANE ( 'NONE',  #250 ) ;
#105 = CARTESIAN_POINT ( 'NONE',  ( 40.99999999999997900, 0.0000000000000000000, 340.0000000000000000 ) ) ;
#106 = DIRECTION ( 'NONE',  ( 0.0000000000000000000, -0.0000000000000000000, 1.000000000000000000 ) ) ;
#107 = PLANE ( 'NONE',  #249 ) ;
#108 = DIRECTION ( 'NONE',  ( 1.000000000000000000, 0.0000000000000000000, -0.0000000000000000000 ) ) ;
#109 = DIRECTION ( 'NONE',  ( -0.0000000000000000000, 0.0000000000000000000, -1.000000000000000000 ) ) ;
#110 = EDGE_LOOP ( 'NONE', ( #5 ) ) ;
#111 = PRODUCT_DEFINITION_SHAPE ( 'NONE', 'NONE',  #231 ) ;
#112 = DESIGN_CONTEXT ( 'detailed design', #214, 'design' ) ;
#113 = DIRECTION ( 'NONE',  ( 0.0000000000000000000, -1.000000000000000000, 0.0000000000000000000 ) ) ;
#114 = CARTESIAN_POINT ( 'NONE',  ( 40.99999999999997900, 0.0000000000000000000, 0.0000000000000000000 ) ) ;
#115 = DIRECTION ( 'NONE',  ( 1.000000000000000000, 0.0000000000000000000, 0.0000000000000000000 ) ) ;
#116 = CARTESIAN_POINT ( 'NONE',  ( -40.99999999999997900, 0.0000000000000000000, 340.0000000000000000 ) ) ;
#117 = CARTESIAN_POINT ( 'NONE',  ( -40.99999999999997900, 0.0000000000000000000, 0.0000000000000000000 ) ) ;
#118 = DIRECTION ( 'NONE',  ( 1.000000000000000000, 0.0000000000000000000, 0.0000000000000000000 ) ) ;
#119 = CARTESIAN_POINT ( 'NONE',  ( -40.99999999999997900, 0.0000000000000000000, 340.0000000000000000 ) ) ;
#120 = CARTESIAN_POINT ( 'NONE',  ( -40.99999999999997900, 0.0000000000000000000, 340.0000000000000000 ) ) ;
#121 = CARTESIAN_POINT ( 'NONE',  ( -40.99999999999997900, -14.00000000000000000, 340.0000000000000000 ) ) ;
#122 = CARTESIAN_POINT ( 'NONE',  ( 1.734723475976807100E-015, 0.0000000000000000000, 14.99999999999999300 ) ) ;
#123 = DIRECTION ( 'NONE',  ( -0.0000000000000000000, -1.000000000000000000, -0.0000000000000000000 ) ) ;
#124 = DIRECTION ( 'NONE',  ( 0.0000000000000000000, 0.0000000000000000000, 1.000000000000000000 ) ) ;
#125 = CARTESIAN_POINT ( 'NONE',  ( 2.653208575337321500E-015, 0.0000000000000000000, 325.0000000000000600 ) ) ;
#126 = DIRECTION ( 'NONE',  ( -0.0000000000000000000, -1.000000000000000000, -0.0000000000000000000 ) ) ;
#127 = DIRECTION ( 'NONE',  ( 0.0000000000000000000, 0.0000000000000000000, 1.000000000000000000 ) ) ;
#128 = DIRECTION ( 'NONE',  ( -0.0000000000000000000, 1.000000000000000000, -0.0000000000000000000 ) ) ;
#129 = CARTESIAN_POINT ( 'NONE',  ( -40.99999999999997900, -14.00000000000000000, 340.0000000000000000 ) ) ;
#130 = DIRECTION ( 'NONE',  ( -0.0000000000000000000, -0.0000000000000000000, -1.000000000000000000 ) ) ;
#131 = CARTESIAN_POINT ( 'NONE',  ( -40.99999999999997900, 0.0000000000000000000, 0.0000000000000000000 ) ) ;
#132 = CARTESIAN_POINT ( 'NONE',  ( 40.99999999999997900, 0.0000000000000000000, 340.0000000000000000 ) ) ;
#133 = DIRECTION ( 'NONE',  ( -0.0000000000000000000, 1.000000000000000000, -0.0000000000000000000 ) ) ;
#134 = DIRECTION ( 'NONE',  ( -1.000000000000000000, 0.0000000000000000000, 0.0000000000000000000 ) ) ;
#135 = CARTESIAN_POINT ( 'NONE',  ( 40.99999999999997900, -14.00000000000000000, 340.0000000000000000 ) ) ;
#136 = DIRECTION ( 'NONE',  ( -0.0000000000000000000, -0.0000000000000000000, -1.000000000000000000 ) ) ;
#137 = CARTESIAN_POINT ( 'NONE',  ( -40.99999999999997900, -14.00000000000000000, 0.0000000000000000000 ) ) ;
#138 = CARTESIAN_POINT ( 'NONE',  ( -41.59999999999998700, -14.00000000000000000, 340.0000000000000000 ) ) ;
#139 = DIRECTION ( 'NONE',  ( -1.000000000000000000, 0.0000000000000000000, 0.0000000000000000000 ) ) ;
#140 = DIRECTION ( 'NONE',  ( 0.0000000000000000000, -1.000000000000000000, 0.0000000000000000000 ) ) ;
#141 = CARTESIAN_POINT ( 'NONE',  ( -41.59999999999998700, 0.0000000000000000000, 340.0000000000000000 ) ) ;
#142 = CARTESIAN_POINT ( 'NONE',  ( -41.59999999999998700, 0.0000000000000000000, 0.0000000000000000000 ) ) ;
#143 = DIRECTION ( 'NONE',  ( 0.0000000000000000000, 1.000000000000000000, 0.0000000000000000000 ) ) ;
#144 = DIRECTION ( 'NONE',  ( -0.0000000000000000000, -0.0000000000000000000, -1.000000000000000000 ) ) ;
#145 = CARTESIAN_POINT ( 'NONE',  ( 41.59999999999998700, -14.00000000000000000, 340.0000000000000000 ) ) ;
#146 = DIRECTION ( 'NONE',  ( -0.0000000000000000000, -0.0000000000000000000, -1.000000000000000000 ) ) ;
#147 = CARTESIAN_POINT ( 'NONE',  ( 40.99999999999997900, 0.0000000000000000000, 340.0000000000000000 ) ) ;
#148 = PERSON ( 'UNSPECIFIED', 'UNSPECIFIED', 'UNSPECIFIED', ('UNSPECIFIED'), ('UNSPECIFIED'), ('UNSPECIFIED') ) ;
#149 = PRODUCT ( 'Êðûøêà íà îòâåòâèòåëü Ò-îáðàçíûé âåðòèêàëüíûé TD_38301', 'Êðûøêà íà îòâåòâèòåëü Ò-îáðàçíûé âåðòèêàëüíûé TD_38301', '', ( #212 ) ) ;
#150 = ORGANIZATION ( 'UNSPECIFIED', 'UNSPECIFIED', '' ) ;
#151 = PERSON_AND_ORGANIZATION ( #148, #150 ) ;
#152 = PERSON_AND_ORGANIZATION ( #148, #150 ) ;
#153 = APPROVAL_PERSON_ORGANIZATION ( #152, #243, #217 ) ;
#154 = COORDINATED_UNIVERSAL_TIME_OFFSET ( 4, 0, .AHEAD. ) ;
#155 = LOCAL_TIME ( 15, 28, 2.000000000000000000, #154 ) ;
#156 = CALENDAR_DATE ( 2012, 15, 11 ) ;
#157 = DATE_AND_TIME ( #156, #155 ) ;
#158 = APPROVAL_DATE_TIME ( #157, #243 ) ;
#159 = PERSON_AND_ORGANIZATION ( #148, #150 ) ;
#160 = COORDINATED_UNIVERSAL_TIME_OFFSET ( 4, 0, .AHEAD. ) ;
#161 = LOCAL_TIME ( 15, 28, 2.000000000000000000, #160 ) ;
#162 = CALENDAR_DATE ( 2012, 15, 11 ) ;
#163 = DATE_AND_TIME ( #162, #161 ) ;
#164 = PERSON_AND_ORGANIZATION ( #148, #150 ) ;
#165 = APPROVAL_PERSON_ORGANIZATION ( #164, #248, #221 ) ;
#166 = COORDINATED_UNIVERSAL_TIME_OFFSET ( 4, 0, .AHEAD. ) ;
#167 = LOCAL_TIME ( 15, 28, 2.000000000000000000, #166 ) ;
#168 = CALENDAR_DATE ( 2012, 15, 11 ) ;
#169 = DATE_AND_TIME ( #168, #167 ) ;
#170 = APPROVAL_DATE_TIME ( #169, #248 ) ;
#171 = PERSON_AND_ORGANIZATION ( #148, #150 ) ;
#172 = PERSON_AND_ORGANIZATION ( #148, #150 ) ;
#173 = PERSON_AND_ORGANIZATION ( #148, #150 ) ;
#174 = COORDINATED_UNIVERSAL_TIME_OFFSET ( 4, 0, .AHEAD. ) ;
#175 = LOCAL_TIME ( 15, 28, 2.000000000000000000, #174 ) ;
#176 = CALENDAR_DATE ( 2012, 15, 11 ) ;
#177 = DATE_AND_TIME ( #176, #175 ) ;
#178 = PERSON_AND_ORGANIZATION ( #148, #150 ) ;
#179 = APPROVAL_PERSON_ORGANIZATION ( #178, #290, #228 ) ;
#180 = COORDINATED_UNIVERSAL_TIME_OFFSET ( 4, 0, .AHEAD. ) ;
#181 = LOCAL_TIME ( 15, 28, 2.000000000000000000, #180 ) ;
#182 = CALENDAR_DATE ( 2012, 15, 11 ) ;
#183 = DATE_AND_TIME ( #182, #181 ) ;
#184 = APPROVAL_DATE_TIME ( #183, #290 ) ;
#185 = CARTESIAN_POINT ( 'NONE',  ( 0.0000000000000000000, 0.0000000000000000000, 340.0000000000000000 ) ) ;
#186 = CARTESIAN_POINT ( 'NONE',  ( -40.99999999999997900, -14.00000000000000000, 340.0000000000000000 ) ) ;
#187 = DIRECTION ( 'NONE',  ( -0.0000000000000000000, 0.0000000000000000000, -1.000000000000000000 ) ) ;
#188 = DIRECTION ( 'NONE',  ( -1.000000000000000000, 0.0000000000000000000, 0.0000000000000000000 ) ) ;
#189 = PLANE ( 'NONE',  #241 ) ;
#190 = CARTESIAN_POINT ( 'NONE',  ( 0.0000000000000000000, 0.0000000000000000000, 0.0000000000000000000 ) ) ;
#191 = CARTESIAN_POINT ( 'NONE',  ( 41.59999999999998700, 0.0000000000000000000, 340.0000000000000000 ) ) ;
#192 = DIRECTION ( 'NONE',  ( 1.000000000000000000, 0.0000000000000000000, -0.0000000000000000000 ) ) ;
#193 = DIRECTION ( 'NONE',  ( -0.0000000000000000000, 0.0000000000000000000, -1.000000000000000000 ) ) ;
#194 = PLANE ( 'NONE',  #235 ) ;
#195 = CARTESIAN_POINT ( 'NONE',  ( 2.653208575337321500E-015, 0.5999999999999999800, 322.5000000000000600 ) ) ;
#196 = DIRECTION ( 'NONE',  ( 0.0000000000000000000, -1.000000000000000000, 0.0000000000000000000 ) ) ;
#197 = DIRECTION ( 'NONE',  ( 0.0000000000000000000, -0.0000000000000000000, -1.000000000000000000 ) ) ;
#198 = PLANE ( 'NONE',  #229 ) ;
#199 = DIRECTION ( 'NONE',  ( -0.0000000000000000000, 0.0000000000000000000, -1.000000000000000000 ) ) ;
#200 = DIRECTION ( 'NONE',  ( -1.000000000000000000, 0.0000000000000000000, 0.0000000000000000000 ) ) ;
#201 = CARTESIAN_POINT ( 'NONE',  ( 2.653208575337321500E-015, 0.0000000000000000000, 327.5000000000000600 ) ) ;
#202 = CARTESIAN_POINT ( 'NONE',  ( 1.734723475976807100E-015, 0.0000000000000000000, 17.49999999999999600 ) ) ;
#203 = CARTESIAN_POINT ( 'NONE',  ( 1.734723475976807100E-015, 0.5999999999999999800, 17.49999999999999600 ) ) ;
#204 = CARTESIAN_POINT ( 'NONE',  ( 0.0000000000000000000, 0.0000000000000000000, 0.0000000000000000000 ) ) ;
#205 = DIRECTION ( 'NONE',  ( 0.0000000000000000000, 0.0000000000000000000, 1.000000000000000000 ) ) ;
#206 =( LENGTH_UNIT ( ) NAMED_UNIT ( * ) SI_UNIT ( .MILLI., .METRE. ) );
#207 =( NAMED_UNIT ( * ) PLANE_ANGLE_UNIT ( ) SI_UNIT ( $, .RADIAN. ) );
#208 =( NAMED_UNIT ( * ) SI_UNIT ( $, .STERADIAN. ) SOLID_ANGLE_UNIT ( ) );
#209 = APPLICATION_PROTOCOL_DEFINITION ( 'international standard', 'config_control_design', 1994, #210 ) ;
#210 = APPLICATION_CONTEXT ( 'configuration controlled 3d designs of mechanical parts and assemblies' ) ;
#211 = DIRECTION ( 'NONE',  ( 1.000000000000000000, 0.0000000000000000000, 0.0000000000000000000 ) ) ;
#212 = MECHANICAL_CONTEXT ( 'NONE', #210, 'mechanical' ) ;
#213 = PERSON_AND_ORGANIZATION_ROLE ( 'design_owner' ) ;
#214 = APPLICATION_CONTEXT ( 'configuration controlled 3d designs of mechanical parts and assemblies' ) ;
#215 = APPLICATION_PROTOCOL_DEFINITION ( 'international standard', 'config_control_design', 1994, #214 ) ;
#216 = APPROVAL_STATUS ( 'not_yet_approved' ) ;
#217 = APPROVAL_ROLE ( '' ) ;
#218 = PERSON_AND_ORGANIZATION_ROLE ( 'creator' ) ;
#219 = DATE_TIME_ROLE ( 'creation_date' ) ;
#220 = APPROVAL_STATUS ( 'not_yet_approved' ) ;
#221 = APPROVAL_ROLE ( '' ) ;
#222 = PERSON_AND_ORGANIZATION_ROLE ( 'creator' ) ;
#223 = PERSON_AND_ORGANIZATION_ROLE ( 'design_supplier' ) ;
#224 = SECURITY_CLASSIFICATION_LEVEL ( 'unclassified' ) ;
#225 = PERSON_AND_ORGANIZATION_ROLE ( 'classification_officer' ) ;
#226 = DATE_TIME_ROLE ( 'classification_date' ) ;
#227 = APPROVAL_STATUS ( 'not_yet_approved' ) ;
#228 = APPROVAL_ROLE ( '' ) ;
#229 = AXIS2_PLACEMENT_3D ( 'NONE', #190, #199, #200 ) ;
#230 = CC_DESIGN_PERSON_AND_ORGANIZATION_ASSIGNMENT ( #151, #213, ( #149 ) ) ;
#231 = PRODUCT_DEFINITION ( 'UNKNOWN', '', #246, #112 ) ;
#232 = CC_DESIGN_PERSON_AND_ORGANIZATION_ASSIGNMENT ( #173, #225, ( #245 ) ) ;
#233 = AXIS2_PLACEMENT_3D ( 'NONE', #204, #205, #211 ) ;
#234 =( GEOMETRIC_REPRESENTATION_CONTEXT ( 3 ) GLOBAL_UNCERTAINTY_ASSIGNED_CONTEXT ( ( #41 ) ) GLOBAL_UNIT_ASSIGNED_CONTEXT ( ( #206, #207, #208 ) ) REPRESENTATION_CONTEXT ( 'NONE', 'WORKASPACE' ) );
#235 = AXIS2_PLACEMENT_3D ( 'NONE', #186, #196, #197 ) ;
#236 = CC_DESIGN_DATE_AND_TIME_ASSIGNMENT ( #163, #219, ( #231 ) ) ;
#237 = CC_DESIGN_APPROVAL ( #243, ( #231 ) ) ;
#238 = CC_DESIGN_PERSON_AND_ORGANIZATION_ASSIGNMENT ( #172, #223, ( #246 ) ) ;
#239 = CC_DESIGN_PERSON_AND_ORGANIZATION_ASSIGNMENT ( #159, #218, ( #231 ) ) ;
#240 = AXIS2_PLACEMENT_3D ( 'NONE', #185, #187, #188 ) ;
#241 = AXIS2_PLACEMENT_3D ( 'NONE', #191, #192, #193 ) ;
#242 = CC_DESIGN_APPROVAL ( #248, ( #246 ) ) ;
#243 = APPROVAL ( #216, 'UNSPECIFIED' ) ;
#244 = CC_DESIGN_PERSON_AND_ORGANIZATION_ASSIGNMENT ( #171, #222, ( #246 ) ) ;
#245 = SECURITY_CLASSIFICATION ( '', '', #224 ) ;
#246 = PRODUCT_DEFINITION_FORMATION_WITH_SPECIFIED_SOURCE ( 'ANY', '', #149, .NOT_KNOWN. ) ;
#247 = CC_DESIGN_DATE_AND_TIME_ASSIGNMENT ( #177, #226, ( #245 ) ) ;
#248 = APPROVAL ( #220, 'UNSPECIFIED' ) ;
#249 = AXIS2_PLACEMENT_3D ( 'NONE', #105, #108, #109 ) ;
#250 = AXIS2_PLACEMENT_3D ( 'NONE', #102, #101, #106 ) ;
#251 = AXIS2_PLACEMENT_3D ( 'NONE', #100, #96, #98 ) ;
#252 = AXIS2_PLACEMENT_3D ( 'NONE', #95, #92, #99 ) ;
#253 = AXIS2_PLACEMENT_3D ( 'NONE', #90, #93, #94 ) ;
#254 = AXIS2_PLACEMENT_3D ( 'NONE', #89, #86, #81 ) ;
#255 = AXIS2_PLACEMENT_3D ( 'NONE', #80, #87, #88 ) ;
#256 = AXIS2_PLACEMENT_3D ( 'NONE', #82, #83, #84 ) ;
#257 = AXIS2_PLACEMENT_3D ( 'NONE', #62, #63, #64 ) ;
#258 = AXIS2_PLACEMENT_3D ( 'NONE', #38, #39, #293 ) ;
#259 = AXIS2_PLACEMENT_3D ( 'NONE', #125, #126, #127 ) ;
#260 = AXIS2_PLACEMENT_3D ( 'NONE', #122, #123, #124 ) ;
#261 = EDGE_CURVE ( 'NONE', #335, #341, #23, .T. ) ;
#262 = EDGE_CURVE ( 'NONE', #332, #342, #26, .T. ) ;
#263 = EDGE_CURVE ( 'NONE', #331, #335, #22, .T. ) ;
#264 = EDGE_CURVE ( 'NONE', #421, #421, #25, .T. ) ;
#265 = EDGE_CURVE ( 'NONE', #422, #422, #32, .T. ) ;
#266 = EDGE_CURVE ( 'NONE', #339, #332, #30, .T. ) ;
#267 = EDGE_CURVE ( 'NONE', #332, #331, #31, .T. ) ;
#268 = EDGE_CURVE ( 'NONE', #344, #331, #35, .T. ) ;
#269 = EDGE_CURVE ( 'NONE', #339, #345, #28, .T. ) ;
#270 = EDGE_CURVE ( 'NONE', #339, #344, #365, .T. ) ;
#271 = EDGE_CURVE ( 'NONE', #344, #338, #364, .T. ) ;
#272 = EDGE_CURVE ( 'NONE', #342, #330, #370, .T. ) ;
#273 = EDGE_CURVE ( 'NONE', #345, #337, #369, .T. ) ;
#274 = EDGE_CURVE ( 'NONE', #330, #341, #367, .T. ) ;
#275 = EDGE_CURVE ( 'NONE', #345, #338, #372, .T. ) ;
#276 = EDGE_CURVE ( 'NONE', #423, #423, #376, .T. ) ;
#277 = EDGE_CURVE ( 'NONE', #338, #346, #379, .T. ) ;
#278 = EDGE_CURVE ( 'NONE', #336, #330, #378, .T. ) ;
#279 = EDGE_CURVE ( 'NONE', #337, #334, #382, .T. ) ;
#280 = EDGE_CURVE ( 'NONE', #340, #341, #374, .T. ) ;
#281 = EDGE_CURVE ( 'NONE', #337, #346, #385, .T. ) ;
#282 = EDGE_CURVE ( 'NONE', #343, #340, #387, .T. ) ;
#283 = EDGE_CURVE ( 'NONE', #336, #340, #389, .T. ) ;
#284 = EDGE_CURVE ( 'NONE', #342, #335, #383, .T. ) ;
#285 = EDGE_CURVE ( 'NONE', #346, #343, #393, .T. ) ;
#286 = EDGE_CURVE ( 'NONE', #334, #343, #395, .T. ) ;
#287 = EDGE_CURVE ( 'NONE', #424, #424, #397, .T. ) ;
#288 = EDGE_CURVE ( 'NONE', #334, #336, #400, .T. ) ;
#289 = CC_DESIGN_APPROVAL ( #290, ( #245 ) ) ;
#290 = APPROVAL ( #227, 'UNSPECIFIED' ) ;
#291 = PRODUCT_RELATED_PRODUCT_CATEGORY ( 'detail', '', ( #149 ) ) ;
#292 = CC_DESIGN_SECURITY_CLASSIFICATION ( #245, ( #246 ) ) ;
#293 = DIRECTION ( 'NONE',  ( 0.0000000000000000000, 0.0000000000000000000, 1.000000000000000000 ) ) ;
#294 = ORIENTED_EDGE ( 'NONE', *, *, #287, .T. ) ;
#295 = ORIENTED_EDGE ( 'NONE', *, *, #285, .T. ) ;
#296 = ORIENTED_EDGE ( 'NONE', *, *, #280, .T. ) ;
#297 = ORIENTED_EDGE ( 'NONE', *, *, #284, .F. ) ;
#298 = ORIENTED_EDGE ( 'NONE', *, *, #264, .F. ) ;
#299 = ORIENTED_EDGE ( 'NONE', *, *, #276, .F. ) ;
#300 = ORIENTED_EDGE ( 'NONE', *, *, #275, .F. ) ;
#301 = ORIENTED_EDGE ( 'NONE', *, *, #286, .T. ) ;
#302 = ORIENTED_EDGE ( 'NONE', *, *, #261, .F. ) ;
#303 = ORIENTED_EDGE ( 'NONE', *, *, #282, .F. ) ;
#304 = ORIENTED_EDGE ( 'NONE', *, *, #278, .T. ) ;
#305 = ORIENTED_EDGE ( 'NONE', *, *, #263, .F. ) ;
#306 = ORIENTED_EDGE ( 'NONE', *, *, #280, .F. ) ;
#307 = ORIENTED_EDGE ( 'NONE', *, *, #273, .T. ) ;
#308 = ORIENTED_EDGE ( 'NONE', *, *, #284, .T. ) ;
#309 = ORIENTED_EDGE ( 'NONE', *, *, #261, .T. ) ;
#310 = ORIENTED_EDGE ( 'NONE', *, *, #286, .F. ) ;
#311 = ORIENTED_EDGE ( 'NONE', *, *, #267, .F. ) ;
#312 = ORIENTED_EDGE ( 'NONE', *, *, #279, .T. ) ;
#313 = ORIENTED_EDGE ( 'NONE', *, *, #274, .F. ) ;
#314 = ORIENTED_EDGE ( 'NONE', *, *, #281, .T. ) ;
#315 = ORIENTED_EDGE ( 'NONE', *, *, #266, .F. ) ;
#316 = ORIENTED_EDGE ( 'NONE', *, *, #270, .F. ) ;
#317 = ORIENTED_EDGE ( 'NONE', *, *, #285, .F. ) ;
#318 = ORIENTED_EDGE ( 'NONE', *, *, #281, .F. ) ;
#319 = ORIENTED_EDGE ( 'NONE', *, *, #288, .F. ) ;
#320 = ORIENTED_EDGE ( 'NONE', *, *, #273, .F. ) ;
#321 = ORIENTED_EDGE ( 'NONE', *, *, #262, .F. ) ;
#322 = ORIENTED_EDGE ( 'NONE', *, *, #269, .T. ) ;
#323 = ORIENTED_EDGE ( 'NONE', *, *, #283, .F. ) ;
#324 = ORIENTED_EDGE ( 'NONE', *, *, #265, .F. ) ;
#325 = ORIENTED_EDGE ( 'NONE', *, *, #265, .T. ) ;
#326 = ORIENTED_EDGE ( 'NONE', *, *, #277, .T. ) ;
#327 = ORIENTED_EDGE ( 'NONE', *, *, #266, .T. ) ;
#328 = ORIENTED_EDGE ( 'NONE', *, *, #274, .T. ) ;
#329 = ORIENTED_EDGE ( 'NONE', *, *, #275, .T. ) ;
#330 = VERTEX_POINT ( 'NONE', #61 ) ;
#331 = VERTEX_POINT ( 'NONE', #67 ) ;
#332 = VERTEX_POINT ( 'NONE', #68 ) ;
#333 = CLOSED_SHELL ( 'NONE', ( #432, #428, #434, #431, #426, #435, #425, #429, #433, #436, #430, #427 ) ) ;
#334 = VERTEX_POINT ( 'NONE', #53 ) ;
#335 = VERTEX_POINT ( 'NONE', #69 ) ;
#336 = VERTEX_POINT ( 'NONE', #66 ) ;
#337 = VERTEX_POINT ( 'NONE', #70 ) ;
#338 = VERTEX_POINT ( 'NONE', #60 ) ;
#339 = VERTEX_POINT ( 'NONE', #71 ) ;
#340 = VERTEX_POINT ( 'NONE', #72 ) ;
#341 = VERTEX_POINT ( 'NONE', #73 ) ;
#342 = VERTEX_POINT ( 'NONE', #74 ) ;
#343 = VERTEX_POINT ( 'NONE', #75 ) ;
#344 = VERTEX_POINT ( 'NONE', #76 ) ;
#345 = VERTEX_POINT ( 'NONE', #77 ) ;
#346 = VERTEX_POINT ( 'NONE', #78 ) ;
#347 = EDGE_LOOP ( 'NONE', ( #15, #20, #319, #21, #320, #13, #327, #7 ) ) ;
#348 = EDGE_LOOP ( 'NONE', ( #309, #313, #3, #308 ) ) ;
#349 = EDGE_LOOP ( 'NONE', ( #303, #310, #14, #2 ) ) ;
#350 = EDGE_LOOP ( 'NONE', ( #12, #300, #307, #314 ) ) ;
#351 = EDGE_LOOP ( 'NONE', ( #18 ) ) ;
#352 = EDGE_LOOP ( 'NONE', ( #306, #323, #304, #328 ) ) ;
#353 = EDGE_LOOP ( 'NONE', ( #299 ) ) ;
#354 = EDGE_LOOP ( 'NONE', ( #10, #311, #315, #17 ) ) ;
#355 = EDGE_LOOP ( 'NONE', ( #324 ) ) ;
#356 = EDGE_LOOP ( 'NONE', ( #317, #318, #312, #301 ) ) ;
#357 = EDGE_LOOP ( 'NONE', ( #11, #316, #322, #329 ) ) ;
#358 = EDGE_LOOP ( 'NONE', ( #298 ) ) ;
#359 = EDGE_LOOP ( 'NONE', ( #294 ) ) ;
#360 = EDGE_LOOP ( 'NONE', ( #19, #297, #321, #6 ) ) ;
#361 = EDGE_LOOP ( 'NONE', ( #302, #305, #9, #16, #326, #295, #8, #296 ) ) ;
#362 = EDGE_LOOP ( 'NONE', ( #325 ) ) ;
#363 = VECTOR ( 'NONE', #134, 1000.000000000000000 ) ;
#364 = LINE ( 'NONE', #137, #368 ) ;
#365 = LINE ( 'NONE', #121, #366 ) ;
#366 = VECTOR ( 'NONE', #136, 1000.000000000000000 ) ;
#367 = LINE ( 'NONE', #135, #375 ) ;
#368 = VECTOR ( 'NONE', #139, 1000.000000000000000 ) ;
#369 = LINE ( 'NONE', #141, #373 ) ;
#370 = LINE ( 'NONE', #132, #371 ) ;
#371 = VECTOR ( 'NONE', #140, 1000.000000000000000 ) ;
#372 = LINE ( 'NONE', #138, #377 ) ;
#373 = VECTOR ( 'NONE', #143, 1000.000000000000000 ) ;
#374 = LINE ( 'NONE', #1, #386 ) ;
#375 = VECTOR ( 'NONE', #144, 1000.000000000000000 ) ;
#376 = CIRCLE ( 'NONE', #258, 2.500000000000002200 ) ;
#377 = VECTOR ( 'NONE', #146, 1000.000000000000000 ) ;
#378 = LINE ( 'NONE', #145, #380 ) ;
#379 = LINE ( 'NONE', #142, #381 ) ;
#380 = VECTOR ( 'NONE', #44, 1000.000000000000000 ) ;
#381 = VECTOR ( 'NONE', #437, 1000.000000000000000 ) ;
#382 = LINE ( 'NONE', #43, #384 ) ;
#383 = LINE ( 'NONE', #147, #394 ) ;
#384 = VECTOR ( 'NONE', #46, 1000.000000000000000 ) ;
#385 = LINE ( 'NONE', #48, #388 ) ;
#386 = VECTOR ( 'NONE', #47, 1000.000000000000000 ) ;
#387 = LINE ( 'NONE', #50, #390 ) ;
#388 = VECTOR ( 'NONE', #49, 1000.000000000000000 ) ;
#389 = LINE ( 'NONE', #52, #392 ) ;
#390 = VECTOR ( 'NONE', #51, 1000.000000000000000 ) ;
#391 = FACE_OUTER_BOUND ( 'NONE', #360, .T. ) ;
#392 = VECTOR ( 'NONE', #54, 1000.000000000000000 ) ;
#393 = LINE ( 'NONE', #56, #396 ) ;
#394 = VECTOR ( 'NONE', #55, 1000.000000000000000 ) ;
#395 = LINE ( 'NONE', #58, #398 ) ;
#396 = VECTOR ( 'NONE', #57, 1000.000000000000000 ) ;
#397 = CIRCLE ( 'NONE', #257, 2.500000000000002200 ) ;
#398 = VECTOR ( 'NONE', #59, 1000.000000000000000 ) ;
#399 = FACE_OUTER_BOUND ( 'NONE', #362, .T. ) ;
#400 = LINE ( 'NONE', #45, #402 ) ;
#401 = FACE_BOUND ( 'NONE', #355, .T. ) ;
#402 = VECTOR ( 'NONE', #65, 1000.000000000000000 ) ;
#403 = FACE_OUTER_BOUND ( 'NONE', #350, .T. ) ;
#404 = FACE_OUTER_BOUND ( 'NONE', #359, .T. ) ;
#405 = FACE_OUTER_BOUND ( 'NONE', #352, .T. ) ;
#406 = FACE_OUTER_BOUND ( 'NONE', #354, .T. ) ;
#407 = FACE_OUTER_BOUND ( 'NONE', #110, .T. ) ;
#408 = CYLINDRICAL_SURFACE ( 'NONE', #254, 2.500000000000002200 ) ;
#409 = FACE_OUTER_BOUND ( 'NONE', #356, .T. ) ;
#410 = FACE_BOUND ( 'NONE', #358, .T. ) ;
#411 = FACE_BOUND ( 'NONE', #351, .T. ) ;
#412 = FACE_OUTER_BOUND ( 'NONE', #348, .T. ) ;
#413 = FACE_OUTER_BOUND ( 'NONE', #37, .T. ) ;
#414 = FACE_OUTER_BOUND ( 'NONE', #347, .T. ) ;
#415 = CYLINDRICAL_SURFACE ( 'NONE', #251, 2.500000000000002200 ) ;
#416 = FACE_BOUND ( 'NONE', #353, .T. ) ;
#417 = SHAPE_DEFINITION_REPRESENTATION ( #111, #40 ) ;
#418 = FACE_OUTER_BOUND ( 'NONE', #349, .T. ) ;
#419 = FACE_OUTER_BOUND ( 'NONE', #357, .T. ) ;
#420 = FACE_OUTER_BOUND ( 'NONE', #361, .T. ) ;
#421 = VERTEX_POINT ( 'NONE', #202 ) ;
#422 = VERTEX_POINT ( 'NONE', #201 ) ;
#423 = VERTEX_POINT ( 'NONE', #203 ) ;
#424 = VERTEX_POINT ( 'NONE', #195 ) ;
#425 = ADVANCED_FACE ( 'NONE', ( #406 ), #79, .F. ) ;
#426 = ADVANCED_FACE ( 'NONE', ( #403 ), #85, .T. ) ;
#427 = ADVANCED_FACE ( 'NONE', ( #404, #399 ), #408, .F. ) ;
#428 = ADVANCED_FACE ( 'NONE', ( #405 ), #91, .T. ) ;
#429 = ADVANCED_FACE ( 'NONE', ( #401, #410, #391 ), #97, .F. ) ;
#430 = ADVANCED_FACE ( 'NONE', ( #407, #413 ), #415, .F. ) ;
#431 = ADVANCED_FACE ( 'NONE', ( #411, #416, #409 ), #104, .T. ) ;
#432 = ADVANCED_FACE ( 'NONE', ( #412 ), #107, .F. ) ;
#433 = ADVANCED_FACE ( 'NONE', ( #414 ), #103, .F. ) ;
#434 = ADVANCED_FACE ( 'NONE', ( #418 ), #189, .T. ) ;
#435 = ADVANCED_FACE ( 'NONE', ( #419 ), #194, .T. ) ;
#436 = ADVANCED_FACE ( 'NONE', ( #420 ), #198, .T. ) ;
#437 = DIRECTION ( 'NONE',  ( 0.0000000000000000000, 1.000000000000000000, 0.0000000000000000000 ) ) ;
ENDSEC;
END-ISO-10303-21;
