ISO-10303-21;
HEADER;
FILE_DESCRIPTION (( 'STEP AP203' ),
    '1' );
FILE_NAME ('Êðûøêà íà îòâåòâèòåëü Ò-îáðàçíûé âåðòèêàëüíûé TDSR_38405.STEP',
    '2012-11-09T08:44:30',
    ( 'Àñååâ' ),
    ( '' ),
    'SwSTEP 2.0',
    'SolidWorks 2012',
    '' );
FILE_SCHEMA (( 'CONFIG_CONTROL_DESIGN' ));
ENDSEC;

DATA;
#1 = AXIS2_PLACEMENT_3D ( 'NONE', #436, #354, #369 ) ;
#2 = AXIS2_PLACEMENT_3D ( 'NONE', #435, #417, #437 ) ;
#3 = AXIS2_PLACEMENT_3D ( 'NONE', #380, #355, #392 ) ;
#4 =( GEOMETRIC_REPRESENTATION_CONTEXT ( 3 ) GLOBAL_UNCERTAINTY_ASSIGNED_CONTEXT ( ( #272 ) ) GLOBAL_UNIT_ASSIGNED_CONTEXT ( ( #357, #408, #358 ) ) REPRESENTATION_CONTEXT ( 'NONE', 'WORKASPACE' ) );
#5 = CC_DESIGN_SECURITY_CLASSIFICATION ( #22, ( #34 ) ) ;
#6 = AXIS2_PLACEMENT_3D ( 'NONE', #387, #432, #431 ) ;
#7 = AXIS2_PLACEMENT_3D ( 'NONE', #384, #381, #379 ) ;
#8 = AXIS2_PLACEMENT_3D ( 'NONE', #423, #428, #382 ) ;
#9 = AXIS2_PLACEMENT_3D ( 'NONE', #424, #389, #388 ) ;
#10 = AXIS2_PLACEMENT_3D ( 'NONE', #415, #429, #430 ) ;
#11 = AXIS2_PLACEMENT_3D ( 'NONE', #418, #426, #422 ) ;
#12 = CC_DESIGN_PERSON_AND_ORGANIZATION_ASSIGNMENT ( #196, #377, ( #268 ) ) ;
#13 = AXIS2_PLACEMENT_3D ( 'NONE', #414, #413, #419 ) ;
#14 = AXIS2_PLACEMENT_3D ( 'NONE', #412, #404, #406 ) ;
#15 = AXIS2_PLACEMENT_3D ( 'NONE', #407, #410, #411 ) ;
#16 = AXIS2_PLACEMENT_3D ( 'NONE', #297, #296, #295 ) ;
#17 = AXIS2_PLACEMENT_3D ( 'NONE', #303, #302, #300 ) ;
#18 = AXIS2_PLACEMENT_3D ( 'NONE', #335, #309, #315 ) ;
#19 = PRODUCT_RELATED_PRODUCT_CATEGORY ( 'detail', '', ( #268 ) ) ;
#20 = CC_DESIGN_APPROVAL ( #21, ( #22 ) ) ;
#21 = APPROVAL ( #353, 'UNSPECIFIED' ) ;
#22 = SECURITY_CLASSIFICATION ( '', '', #361 ) ;
#23 = CC_DESIGN_DATE_AND_TIME_ASSIGNMENT ( #262, #359, ( #22 ) ) ;
#24 = AXIS2_PLACEMENT_3D ( 'NONE', #306, #307, #310 ) ;
#25 = EDGE_CURVE ( 'NONE', #115, #110, #86, .T. ) ;
#26 = CC_DESIGN_PERSON_AND_ORGANIZATION_ASSIGNMENT ( #190, #368, ( #64 ) ) ;
#27 = EDGE_CURVE ( 'NONE', #114, #170, #173, .T. ) ;
#28 = EDGE_CURVE ( 'NONE', #111, #170, #87, .T. ) ;
#29 = EDGE_CURVE ( 'NONE', #115, #111, #82, .T. ) ;
#30 = EDGE_CURVE ( 'NONE', #211, #211, #80, .T. ) ;
#31 = EDGE_CURVE ( 'NONE', #202, #202, #74, .T. ) ;
#32 = CC_DESIGN_DATE_AND_TIME_ASSIGNMENT ( #249, #367, ( #64 ) ) ;
#33 = EDGE_CURVE ( 'NONE', #170, #121, #76, .T. ) ;
#34 = PRODUCT_DEFINITION_FORMATION_WITH_SPECIFIED_SOURCE ( 'ANY', '', #268, .NOT_KNOWN. ) ;
#35 = EDGE_CURVE ( 'NONE', #111, #117, #75, .T. ) ;
#36 = CC_DESIGN_PERSON_AND_ORGANIZATION_ASSIGNMENT ( #184, #362, ( #34 ) ) ;
#37 = CC_DESIGN_APPROVAL ( #38, ( #34 ) ) ;
#38 = APPROVAL ( #365, 'UNSPECIFIED' ) ;
#39 = EDGE_CURVE ( 'NONE', #203, #203, #71, .T. ) ;
#40 = EDGE_CURVE ( 'NONE', #204, #204, #68, .T. ) ;
#41 = EDGE_CURVE ( 'NONE', #109, #118, #70, .T. ) ;
#42 = EDGE_CURVE ( 'NONE', #112, #109, #78, .T. ) ;
#43 = CC_DESIGN_PERSON_AND_ORGANIZATION_ASSIGNMENT ( #183, #360, ( #22 ) ) ;
#44 = CC_DESIGN_PERSON_AND_ORGANIZATION_ASSIGNMENT ( #185, #363, ( #34 ) ) ;
#45 = EDGE_CURVE ( 'NONE', #116, #109, #69, .T. ) ;
#46 = EDGE_CURVE ( 'NONE', #112, #108, #84, .T. ) ;
#47 = EDGE_CURVE ( 'NONE', #110, #116, #65, .T. ) ;
#48 = EDGE_CURVE ( 'NONE', #110, #112, #180, .T. ) ;
#49 = EDGE_CURVE ( 'NONE', #114, #116, #191, .T. ) ;
#50 = EDGE_CURVE ( 'NONE', #115, #114, #243, .T. ) ;
#51 = EDGE_CURVE ( 'NONE', #107, #119, #192, .T. ) ;
#52 = EDGE_CURVE ( 'NONE', #118, #120, #88, .T. ) ;
#53 = EDGE_CURVE ( 'NONE', #108, #118, #187, .T. ) ;
#54 = EDGE_CURVE ( 'NONE', #113, #120, #237, .T. ) ;
#55 = EDGE_CURVE ( 'NONE', #117, #121, #240, .T. ) ;
#56 = EDGE_CURVE ( 'NONE', #121, #119, #188, .T. ) ;
#57 = EDGE_CURVE ( 'NONE', #120, #119, #189, .T. ) ;
#58 = EDGE_CURVE ( 'NONE', #113, #107, #232, .T. ) ;
#59 = EDGE_CURVE ( 'NONE', #108, #113, #230, .T. ) ;
#60 = EDGE_CURVE ( 'NONE', #117, #107, #228, .T. ) ;
#61 = AXIS2_PLACEMENT_3D ( 'NONE', #434, #395, #378 ) ;
#62 = CC_DESIGN_APPROVAL ( #63, ( #64 ) ) ;
#63 = APPROVAL ( #371, 'UNSPECIFIED' ) ;
#64 = PRODUCT_DEFINITION ( 'UNKNOWN', '', #34, #286 ) ;
#65 = LINE ( 'NONE', #299, #248 ) ;
#66 = VECTOR ( 'NONE', #294, 1000.000000000000000 ) ;
#67 = VECTOR ( 'NONE', #298, 1000.000000000000000 ) ;
#68 = CIRCLE ( 'NONE', #16, 2.500000000000002200 ) ;
#69 = LINE ( 'NONE', #328, #83 ) ;
#70 = LINE ( 'NONE', #308, #66 ) ;
#71 = CIRCLE ( 'NONE', #17, 2.500000000000002200 ) ;
#72 = VECTOR ( 'NONE', #312, 1000.000000000000000 ) ;
#73 = VECTOR ( 'NONE', #334, 1000.000000000000000 ) ;
#74 = CIRCLE ( 'NONE', #18, 2.500000000000002200 ) ;
#75 = LINE ( 'NONE', #305, #73 ) ;
#76 = LINE ( 'NONE', #351, #72 ) ;
#77 = VECTOR ( 'NONE', #339, 1000.000000000000000 ) ;
#78 = LINE ( 'NONE', #293, #67 ) ;
#79 = VECTOR ( 'NONE', #349, 1000.000000000000000 ) ;
#80 = CIRCLE ( 'NONE', #24, 2.500000000000002200 ) ;
#81 = VECTOR ( 'NONE', #333, 1000.000000000000000 ) ;
#82 = LINE ( 'NONE', #329, #77 ) ;
#83 = VECTOR ( 'NONE', #320, 1000.000000000000000 ) ;
#84 = LINE ( 'NONE', #287, #247 ) ;
#85 = VECTOR ( 'NONE', #340, 1000.000000000000000 ) ;
#86 = LINE ( 'NONE', #338, #85 ) ;
#87 = LINE ( 'NONE', #330, #79 ) ;
#88 = LINE ( 'NONE', #318, #239 ) ;
#89 = EDGE_LOOP ( 'NONE', ( #148, #130, #146, #147, #144, #145, #142, #143 ) ) ;
#90 = EDGE_LOOP ( 'NONE', ( #153, #158, #157, #155 ) ) ;
#91 = EDGE_LOOP ( 'NONE', ( #166 ) ) ;
#92 = EDGE_LOOP ( 'NONE', ( #263, #179, #177, #171 ) ) ;
#93 = EDGE_LOOP ( 'NONE', ( #175 ) ) ;
#94 = EDGE_LOOP ( 'NONE', ( #165, #161, #162, #164 ) ) ;
#95 = EDGE_LOOP ( 'NONE', ( #168, #174, #172, #176 ) ) ;
#96 = EDGE_LOOP ( 'NONE', ( #154, #156, #160, #159 ) ) ;
#97 = EDGE_LOOP ( 'NONE', ( #122 ) ) ;
#98 = EDGE_LOOP ( 'NONE', ( #149, #152, #123, #151 ) ) ;
#99 = EDGE_LOOP ( 'NONE', ( #163, #169, #167, #129 ) ) ;
#100 = EDGE_LOOP ( 'NONE', ( #126 ) ) ;
#101 = EDGE_LOOP ( 'NONE', ( #127, #178, #124, #125 ) ) ;
#102 = EDGE_LOOP ( 'NONE', ( #140, #141, #138, #139, #136, #137, #134, #135 ) ) ;
#103 = EDGE_LOOP ( 'NONE', ( #131 ) ) ;
#104 = EDGE_LOOP ( 'NONE', ( #132 ) ) ;
#105 = EDGE_LOOP ( 'NONE', ( #133 ) ) ;
#106 = EDGE_LOOP ( 'NONE', ( #150 ) ) ;
#107 = VERTEX_POINT ( 'NONE', #325 ) ;
#108 = VERTEX_POINT ( 'NONE', #322 ) ;
#109 = VERTEX_POINT ( 'NONE', #313 ) ;
#110 = VERTEX_POINT ( 'NONE', #402 ) ;
#111 = VERTEX_POINT ( 'NONE', #393 ) ;
#112 = VERTEX_POINT ( 'NONE', #314 ) ;
#113 = VERTEX_POINT ( 'NONE', #394 ) ;
#114 = VERTEX_POINT ( 'NONE', #336 ) ;
#115 = VERTEX_POINT ( 'NONE', #396 ) ;
#116 = VERTEX_POINT ( 'NONE', #397 ) ;
#117 = VERTEX_POINT ( 'NONE', #398 ) ;
#118 = VERTEX_POINT ( 'NONE', #399 ) ;
#119 = VERTEX_POINT ( 'NONE', #400 ) ;
#120 = VERTEX_POINT ( 'NONE', #401 ) ;
#121 = VERTEX_POINT ( 'NONE', #403 ) ;
#122 = ORIENTED_EDGE ( 'NONE', *, *, #31, .F. ) ;
#123 = ORIENTED_EDGE ( 'NONE', *, *, #60, .F. ) ;
#124 = ORIENTED_EDGE ( 'NONE', *, *, #35, .F. ) ;
#125 = ORIENTED_EDGE ( 'NONE', *, *, #28, .T. ) ;
#126 = ORIENTED_EDGE ( 'NONE', *, *, #40, .T. ) ;
#127 = ORIENTED_EDGE ( 'NONE', *, *, #33, .T. ) ;
#128 = CLOSED_SHELL ( 'NONE', ( #278, #284, #277, #275, #273, #276, #280, #279, #282, #281, #274, #283 ) ) ;
#129 = ORIENTED_EDGE ( 'NONE', *, *, #42, .T. ) ;
#130 = ORIENTED_EDGE ( 'NONE', *, *, #58, .F. ) ;
#131 = ORIENTED_EDGE ( 'NONE', *, *, #30, .T. ) ;
#132 = ORIENTED_EDGE ( 'NONE', *, *, #39, .T. ) ;
#133 = ORIENTED_EDGE ( 'NONE', *, *, #31, .T. ) ;
#134 = ORIENTED_EDGE ( 'NONE', *, *, #52, .T. ) ;
#135 = ORIENTED_EDGE ( 'NONE', *, *, #57, .T. ) ;
#136 = ORIENTED_EDGE ( 'NONE', *, *, #45, .T. ) ;
#137 = ORIENTED_EDGE ( 'NONE', *, *, #41, .T. ) ;
#138 = ORIENTED_EDGE ( 'NONE', *, *, #27, .F. ) ;
#139 = ORIENTED_EDGE ( 'NONE', *, *, #49, .T. ) ;
#140 = ORIENTED_EDGE ( 'NONE', *, *, #56, .F. ) ;
#141 = ORIENTED_EDGE ( 'NONE', *, *, #33, .F. ) ;
#142 = ORIENTED_EDGE ( 'NONE', *, *, #29, .T. ) ;
#143 = ORIENTED_EDGE ( 'NONE', *, *, #35, .T. ) ;
#144 = ORIENTED_EDGE ( 'NONE', *, *, #48, .F. ) ;
#145 = ORIENTED_EDGE ( 'NONE', *, *, #25, .F. ) ;
#146 = ORIENTED_EDGE ( 'NONE', *, *, #59, .F. ) ;
#147 = ORIENTED_EDGE ( 'NONE', *, *, #46, .F. ) ;
#148 = ORIENTED_EDGE ( 'NONE', *, *, #60, .T. ) ;
#149 = ORIENTED_EDGE ( 'NONE', *, *, #56, .T. ) ;
#150 = ORIENTED_EDGE ( 'NONE', *, *, #40, .F. ) ;
#151 = ORIENTED_EDGE ( 'NONE', *, *, #55, .T. ) ;
#152 = ORIENTED_EDGE ( 'NONE', *, *, #51, .F. ) ;
#153 = ORIENTED_EDGE ( 'NONE', *, *, #57, .F. ) ;
#154 = ORIENTED_EDGE ( 'NONE', *, *, #52, .F. ) ;
#155 = ORIENTED_EDGE ( 'NONE', *, *, #51, .T. ) ;
#156 = ORIENTED_EDGE ( 'NONE', *, *, #53, .F. ) ;
#157 = ORIENTED_EDGE ( 'NONE', *, *, #58, .T. ) ;
#158 = ORIENTED_EDGE ( 'NONE', *, *, #54, .F. ) ;
#159 = ORIENTED_EDGE ( 'NONE', *, *, #54, .T. ) ;
#160 = ORIENTED_EDGE ( 'NONE', *, *, #59, .T. ) ;
#161 = ORIENTED_EDGE ( 'NONE', *, *, #42, .F. ) ;
#162 = ORIENTED_EDGE ( 'NONE', *, *, #46, .T. ) ;
#163 = ORIENTED_EDGE ( 'NONE', *, *, #45, .F. ) ;
#164 = ORIENTED_EDGE ( 'NONE', *, *, #53, .T. ) ;
#165 = ORIENTED_EDGE ( 'NONE', *, *, #41, .F. ) ;
#166 = ORIENTED_EDGE ( 'NONE', *, *, #39, .F. ) ;
#167 = ORIENTED_EDGE ( 'NONE', *, *, #48, .T. ) ;
#168 = ORIENTED_EDGE ( 'NONE', *, *, #49, .F. ) ;
#169 = ORIENTED_EDGE ( 'NONE', *, *, #47, .F. ) ;
#170 = VERTEX_POINT ( 'NONE', #405 ) ;
#171 = ORIENTED_EDGE ( 'NONE', *, *, #50, .T. ) ;
#172 = ORIENTED_EDGE ( 'NONE', *, *, #25, .T. ) ;
#173 = LINE ( 'NONE', #331, #81 ) ;
#174 = ORIENTED_EDGE ( 'NONE', *, *, #50, .F. ) ;
#175 = ORIENTED_EDGE ( 'NONE', *, *, #30, .F. ) ;
#176 = ORIENTED_EDGE ( 'NONE', *, *, #47, .T. ) ;
#177 = ORIENTED_EDGE ( 'NONE', *, *, #29, .F. ) ;
#178 = ORIENTED_EDGE ( 'NONE', *, *, #55, .F. ) ;
#179 = ORIENTED_EDGE ( 'NONE', *, *, #28, .F. ) ;
#180 = LINE ( 'NONE', #319, #246 ) ;
#181 = LOCAL_TIME ( 12, 44, 30.00000000000000000, #182 ) ;
#182 = COORDINATED_UNIVERSAL_TIME_OFFSET ( 4, 0, .AHEAD. ) ;
#183 = PERSON_AND_ORGANIZATION ( #269, #197 ) ;
#184 = PERSON_AND_ORGANIZATION ( #269, #197 ) ;
#185 = PERSON_AND_ORGANIZATION ( #269, #197 ) ;
#186 = PERSON_AND_ORGANIZATION ( #269, #197 ) ;
#187 = LINE ( 'NONE', #343, #238 ) ;
#188 = LINE ( 'NONE', #342, #233 ) ;
#189 = LINE ( 'NONE', #288, #231 ) ;
#190 = PERSON_AND_ORGANIZATION ( #269, #197 ) ;
#191 = LINE ( 'NONE', #326, #245 ) ;
#192 = LINE ( 'NONE', #347, #241 ) ;
#193 = COORDINATED_UNIVERSAL_TIME_OFFSET ( 4, 0, .AHEAD. ) ;
#194 = APPROVAL_PERSON_ORGANIZATION ( #195, #63, #370 ) ;
#195 = PERSON_AND_ORGANIZATION ( #269, #197 ) ;
#196 = PERSON_AND_ORGANIZATION ( #269, #197 ) ;
#197 = ORGANIZATION ( 'UNSPECIFIED', 'UNSPECIFIED', '' ) ;
#198 = DATE_AND_TIME ( #200, #201 ) ;
#199 = APPROVAL_DATE_TIME ( #198, #63 ) ;
#200 = CALENDAR_DATE ( 2012, 9, 11 ) ;
#201 = LOCAL_TIME ( 12, 44, 30.00000000000000000, #193 ) ;
#202 = VERTEX_POINT ( 'NONE', #374 ) ;
#203 = VERTEX_POINT ( 'NONE', #385 ) ;
#204 = VERTEX_POINT ( 'NONE', #420 ) ;
#205 = FACE_OUTER_BOUND ( 'NONE', #103, .T. ) ;
#206 = SHAPE_DEFINITION_REPRESENTATION ( #285, #270 ) ;
#207 = CYLINDRICAL_SURFACE ( 'NONE', #2, 2.500000000000002200 ) ;
#208 = FACE_OUTER_BOUND ( 'NONE', #90, .T. ) ;
#209 = FACE_OUTER_BOUND ( 'NONE', #89, .T. ) ;
#210 = FACE_OUTER_BOUND ( 'NONE', #100, .T. ) ;
#211 = VERTEX_POINT ( 'NONE', #433 ) ;
#212 = FACE_OUTER_BOUND ( 'NONE', #98, .T. ) ;
#213 = FACE_BOUND ( 'NONE', #93, .T. ) ;
#214 = FACE_OUTER_BOUND ( 'NONE', #101, .T. ) ;
#215 = FACE_OUTER_BOUND ( 'NONE', #92, .T. ) ;
#216 = FACE_BOUND ( 'NONE', #97, .T. ) ;
#217 = FACE_OUTER_BOUND ( 'NONE', #105, .T. ) ;
#218 = FACE_OUTER_BOUND ( 'NONE', #96, .T. ) ;
#219 = CYLINDRICAL_SURFACE ( 'NONE', #14, 2.500000000000002200 ) ;
#220 = FACE_BOUND ( 'NONE', #91, .T. ) ;
#221 = FACE_OUTER_BOUND ( 'NONE', #104, .T. ) ;
#222 = FACE_OUTER_BOUND ( 'NONE', #94, .T. ) ;
#223 = FACE_OUTER_BOUND ( 'NONE', #95, .T. ) ;
#224 = FACE_OUTER_BOUND ( 'NONE', #102, .T. ) ;
#225 = VECTOR ( 'NONE', #321, 1000.000000000000000 ) ;
#226 = FACE_OUTER_BOUND ( 'NONE', #99, .T. ) ;
#227 = VECTOR ( 'NONE', #323, 1000.000000000000000 ) ;
#228 = LINE ( 'NONE', #324, #225 ) ;
#229 = VECTOR ( 'NONE', #292, 1000.000000000000000 ) ;
#230 = LINE ( 'NONE', #291, #227 ) ;
#231 = VECTOR ( 'NONE', #290, 1000.000000000000000 ) ;
#232 = LINE ( 'NONE', #289, #229 ) ;
#233 = VECTOR ( 'NONE', #332, 1000.000000000000000 ) ;
#234 = FACE_BOUND ( 'NONE', #106, .T. ) ;
#235 = VECTOR ( 'NONE', #350, 1000.000000000000000 ) ;
#236 = VECTOR ( 'NONE', #337, 1000.000000000000000 ) ;
#237 = LINE ( 'NONE', #344, #236 ) ;
#238 = VECTOR ( 'NONE', #345, 1000.000000000000000 ) ;
#239 = VECTOR ( 'NONE', #341, 1000.000000000000000 ) ;
#240 = LINE ( 'NONE', #311, #235 ) ;
#241 = VECTOR ( 'NONE', #346, 1000.000000000000000 ) ;
#242 = VECTOR ( 'NONE', #348, 1000.000000000000000 ) ;
#243 = LINE ( 'NONE', #317, #242 ) ;
#244 = CALENDAR_DATE ( 2012, 9, 11 ) ;
#245 = VECTOR ( 'NONE', #316, 1000.000000000000000 ) ;
#246 = VECTOR ( 'NONE', #327, 1000.000000000000000 ) ;
#247 = VECTOR ( 'NONE', #304, 1000.000000000000000 ) ;
#248 = VECTOR ( 'NONE', #301, 1000.000000000000000 ) ;
#249 = DATE_AND_TIME ( #255, #254 ) ;
#250 = APPROVAL_PERSON_ORGANIZATION ( #251, #38, #364 ) ;
#251 = PERSON_AND_ORGANIZATION ( #269, #197 ) ;
#252 = COORDINATED_UNIVERSAL_TIME_OFFSET ( 4, 0, .AHEAD. ) ;
#253 = LOCAL_TIME ( 12, 44, 30.00000000000000000, #252 ) ;
#254 = LOCAL_TIME ( 12, 44, 30.00000000000000000, #258 ) ;
#255 = CALENDAR_DATE ( 2012, 9, 11 ) ;
#256 = APPROVAL_PERSON_ORGANIZATION ( #186, #21, #356 ) ;
#257 = APPROVAL_DATE_TIME ( #260, #38 ) ;
#258 = COORDINATED_UNIVERSAL_TIME_OFFSET ( 4, 0, .AHEAD. ) ;
#259 = APPROVAL_DATE_TIME ( #265, #21 ) ;
#260 = DATE_AND_TIME ( #261, #253 ) ;
#261 = CALENDAR_DATE ( 2012, 9, 11 ) ;
#262 = DATE_AND_TIME ( #244, #181 ) ;
#263 = ORIENTED_EDGE ( 'NONE', *, *, #27, .T. ) ;
#264 = LOCAL_TIME ( 12, 44, 30.00000000000000000, #266 ) ;
#265 = DATE_AND_TIME ( #267, #264 ) ;
#266 = COORDINATED_UNIVERSAL_TIME_OFFSET ( 4, 0, .AHEAD. ) ;
#267 = CALENDAR_DATE ( 2012, 9, 11 ) ;
#268 = PRODUCT ( 'Êðûøêà íà îòâåòâèòåëü Ò-îáðàçíûé âåðòèêàëüíûé TDSR_38405', 'Êðûøêà íà îòâåòâèòåëü Ò-îáðàçíûé âåðòèêàëüíûé TDSR_38405', '', ( #375 ) ) ;
#269 = PERSON ( 'UNSPECIFIED', 'UNSPECIFIED', 'UNSPECIFIED', ('UNSPECIFIED'), ('UNSPECIFIED'), ('UNSPECIFIED') ) ;
#270 = ADVANCED_BREP_SHAPE_REPRESENTATION ( '¦¨v°úð ýð þªòõªòøªõû¹ T-þñ¨ð÷ývù òõ¨ªøúðû¹ývù TDSR_38405', ( #271, #61 ), #4 ) ;
#271 = MANIFOLD_SOLID_BREP ( 'Âûðåç-Âûòÿíóòü1', #128 ) ;
#272 = UNCERTAINTY_MEASURE_WITH_UNIT (LENGTH_MEASURE( 1.000000000000000100E-005 ), #357, 'distance_accuracy_value', 'NONE');
#273 = ADVANCED_FACE ( 'NONE', ( #226 ), #409, .T. ) ;
#274 = ADVANCED_FACE ( 'NONE', ( #221, #217 ), #219, .F. ) ;
#275 = ADVANCED_FACE ( 'NONE', ( #234, #220, #222 ), #416, .T. ) ;
#276 = ADVANCED_FACE ( 'NONE', ( #223 ), #421, .T. ) ;
#277 = ADVANCED_FACE ( 'NONE', ( #218 ), #427, .T. ) ;
#278 = ADVANCED_FACE ( 'NONE', ( #212 ), #390, .F. ) ;
#279 = ADVANCED_FACE ( 'NONE', ( #213, #216, #214 ), #386, .F. ) ;
#280 = ADVANCED_FACE ( 'NONE', ( #215 ), #383, .F. ) ;
#281 = ADVANCED_FACE ( 'NONE', ( #224 ), #391, .T. ) ;
#282 = ADVANCED_FACE ( 'NONE', ( #209 ), #425, .F. ) ;
#283 = ADVANCED_FACE ( 'NONE', ( #210, #205 ), #207, .F. ) ;
#284 = ADVANCED_FACE ( 'NONE', ( #208 ), #352, .T. ) ;
#285 = PRODUCT_DEFINITION_SHAPE ( 'NONE', 'NONE',  #64 ) ;
#286 = DESIGN_CONTEXT ( 'detailed design', #376, 'design' ) ;
#287 = CARTESIAN_POINT ( 'NONE',  ( -151.0000000000000000, 0.5999999999999999800, 460.0000000000000000 ) ) ;
#288 = CARTESIAN_POINT ( 'NONE',  ( 151.5999999999999900, -14.00000000000000000, 0.0000000000000000000 ) ) ;
#289 = CARTESIAN_POINT ( 'NONE',  ( 151.5999999999999900, -14.00000000000000000, 460.0000000000000000 ) ) ;
#290 = DIRECTION ( 'NONE',  ( -1.000000000000000000, 0.0000000000000000000, 0.0000000000000000000 ) ) ;
#291 = CARTESIAN_POINT ( 'NONE',  ( 151.5999999999999900, 0.0000000000000000000, 460.0000000000000000 ) ) ;
#292 = DIRECTION ( 'NONE',  ( -1.000000000000000000, 0.0000000000000000000, 0.0000000000000000000 ) ) ;
#293 = CARTESIAN_POINT ( 'NONE',  ( -151.5999999999999900, 0.5999999999999999800, 460.0000000000000000 ) ) ;
#294 = DIRECTION ( 'NONE',  ( 1.000000000000000000, 0.0000000000000000000, 0.0000000000000000000 ) ) ;
#295 = DIRECTION ( 'NONE',  ( 0.0000000000000000000, 0.0000000000000000000, -1.000000000000000000 ) ) ;
#296 = DIRECTION ( 'NONE',  ( -0.0000000000000000000, 1.000000000000000000, -0.0000000000000000000 ) ) ;
#297 = CARTESIAN_POINT ( 'NONE',  ( 0.0000000000000000000, 0.5999999999999999800, 445.0000000000000600 ) ) ;
#298 = DIRECTION ( 'NONE',  ( -0.0000000000000000000, -0.0000000000000000000, -1.000000000000000000 ) ) ;
#299 = CARTESIAN_POINT ( 'NONE',  ( -151.5999999999999900, -14.00000000000000000, 460.0000000000000000 ) ) ;
#300 = DIRECTION ( 'NONE',  ( 0.0000000000000000000, 0.0000000000000000000, 1.000000000000000000 ) ) ;
#301 = DIRECTION ( 'NONE',  ( -0.0000000000000000000, -0.0000000000000000000, -1.000000000000000000 ) ) ;
#302 = DIRECTION ( 'NONE',  ( 0.0000000000000000000, 1.000000000000000000, 0.0000000000000000000 ) ) ;
#303 = CARTESIAN_POINT ( 'NONE',  ( 1.734723475976807100E-015, 0.5999999999999999800, 14.99999999999999300 ) ) ;
#304 = DIRECTION ( 'NONE',  ( 1.000000000000000000, 0.0000000000000000000, 0.0000000000000000000 ) ) ;
#305 = CARTESIAN_POINT ( 'NONE',  ( -151.0000000000000000, 0.0000000000000000000, 460.0000000000000000 ) ) ;
#306 = CARTESIAN_POINT ( 'NONE',  ( 0.0000000000000000000, 0.0000000000000000000, 445.0000000000000600 ) ) ;
#307 = DIRECTION ( 'NONE',  ( -0.0000000000000000000, -1.000000000000000000, -0.0000000000000000000 ) ) ;
#308 = CARTESIAN_POINT ( 'NONE',  ( -151.0000000000000000, 0.5999999999999999800, 0.0000000000000000000 ) ) ;
#309 = DIRECTION ( 'NONE',  ( -0.0000000000000000000, -1.000000000000000000, -0.0000000000000000000 ) ) ;
#310 = DIRECTION ( 'NONE',  ( 0.0000000000000000000, 0.0000000000000000000, 1.000000000000000000 ) ) ;
#311 = CARTESIAN_POINT ( 'NONE',  ( 151.0000000000000000, 0.0000000000000000000, 460.0000000000000000 ) ) ;
#312 = DIRECTION ( 'NONE',  ( 1.000000000000000000, 0.0000000000000000000, 0.0000000000000000000 ) ) ;
#313 = CARTESIAN_POINT ( 'NONE',  ( -151.5999999999999900, 0.5999999999999999800, 0.0000000000000000000 ) ) ;
#314 = CARTESIAN_POINT ( 'NONE',  ( -151.5999999999999900, 0.5999999999999999800, 460.0000000000000000 ) ) ;
#315 = DIRECTION ( 'NONE',  ( 0.0000000000000000000, 0.0000000000000000000, 1.000000000000000000 ) ) ;
#316 = DIRECTION ( 'NONE',  ( -1.000000000000000000, 0.0000000000000000000, 0.0000000000000000000 ) ) ;
#317 = CARTESIAN_POINT ( 'NONE',  ( -151.0000000000000000, -14.00000000000000000, 460.0000000000000000 ) ) ;
#318 = CARTESIAN_POINT ( 'NONE',  ( 151.5999999999999900, 0.0000000000000000000, 0.0000000000000000000 ) ) ;
#319 = CARTESIAN_POINT ( 'NONE',  ( -151.5999999999999900, 0.0000000000000000000, 460.0000000000000000 ) ) ;
#320 = DIRECTION ( 'NONE',  ( 0.0000000000000000000, 1.000000000000000000, 0.0000000000000000000 ) ) ;
#321 = DIRECTION ( 'NONE',  ( 0.0000000000000000000, -1.000000000000000000, 0.0000000000000000000 ) ) ;
#322 = CARTESIAN_POINT ( 'NONE',  ( 151.5999999999999900, 0.5999999999999999800, 460.0000000000000000 ) ) ;
#323 = DIRECTION ( 'NONE',  ( -0.0000000000000000000, -1.000000000000000000, 0.0000000000000000000 ) ) ;
#324 = CARTESIAN_POINT ( 'NONE',  ( 151.0000000000000000, 0.0000000000000000000, 460.0000000000000000 ) ) ;
#325 = CARTESIAN_POINT ( 'NONE',  ( 151.0000000000000000, -14.00000000000000000, 460.0000000000000000 ) ) ;
#326 = CARTESIAN_POINT ( 'NONE',  ( -151.0000000000000000, -14.00000000000000000, 0.0000000000000000000 ) ) ;
#327 = DIRECTION ( 'NONE',  ( 0.0000000000000000000, 1.000000000000000000, 0.0000000000000000000 ) ) ;
#328 = CARTESIAN_POINT ( 'NONE',  ( -151.5999999999999900, 0.0000000000000000000, 0.0000000000000000000 ) ) ;
#329 = CARTESIAN_POINT ( 'NONE',  ( -151.0000000000000000, 0.0000000000000000000, 460.0000000000000000 ) ) ;
#330 = CARTESIAN_POINT ( 'NONE',  ( -151.0000000000000000, 0.0000000000000000000, 460.0000000000000000 ) ) ;
#331 = CARTESIAN_POINT ( 'NONE',  ( -151.0000000000000000, 0.0000000000000000000, 0.0000000000000000000 ) ) ;
#332 = DIRECTION ( 'NONE',  ( 0.0000000000000000000, -1.000000000000000000, 0.0000000000000000000 ) ) ;
#333 = DIRECTION ( 'NONE',  ( -0.0000000000000000000, 1.000000000000000000, -0.0000000000000000000 ) ) ;
#334 = DIRECTION ( 'NONE',  ( 1.000000000000000000, 0.0000000000000000000, 0.0000000000000000000 ) ) ;
#335 = CARTESIAN_POINT ( 'NONE',  ( 1.734723475976807100E-015, 0.0000000000000000000, 14.99999999999999300 ) ) ;
#336 = CARTESIAN_POINT ( 'NONE',  ( -151.0000000000000000, -14.00000000000000000, 0.0000000000000000000 ) ) ;
#337 = DIRECTION ( 'NONE',  ( -0.0000000000000000000, -0.0000000000000000000, -1.000000000000000000 ) ) ;
#338 = CARTESIAN_POINT ( 'NONE',  ( -151.0000000000000000, -14.00000000000000000, 460.0000000000000000 ) ) ;
#339 = DIRECTION ( 'NONE',  ( -0.0000000000000000000, 1.000000000000000000, -0.0000000000000000000 ) ) ;
#340 = DIRECTION ( 'NONE',  ( -1.000000000000000000, 0.0000000000000000000, 0.0000000000000000000 ) ) ;
#341 = DIRECTION ( 'NONE',  ( -0.0000000000000000000, -1.000000000000000000, 0.0000000000000000000 ) ) ;
#342 = CARTESIAN_POINT ( 'NONE',  ( 151.0000000000000000, 0.0000000000000000000, 0.0000000000000000000 ) ) ;
#343 = CARTESIAN_POINT ( 'NONE',  ( 151.5999999999999900, 0.5999999999999999800, 460.0000000000000000 ) ) ;
#344 = CARTESIAN_POINT ( 'NONE',  ( 151.5999999999999900, -14.00000000000000000, 460.0000000000000000 ) ) ;
#345 = DIRECTION ( 'NONE',  ( -0.0000000000000000000, -0.0000000000000000000, -1.000000000000000000 ) ) ;
#346 = DIRECTION ( 'NONE',  ( -0.0000000000000000000, -0.0000000000000000000, -1.000000000000000000 ) ) ;
#347 = CARTESIAN_POINT ( 'NONE',  ( 151.0000000000000000, -14.00000000000000000, 460.0000000000000000 ) ) ;
#348 = DIRECTION ( 'NONE',  ( -0.0000000000000000000, -0.0000000000000000000, -1.000000000000000000 ) ) ;
#349 = DIRECTION ( 'NONE',  ( -0.0000000000000000000, -0.0000000000000000000, -1.000000000000000000 ) ) ;
#350 = DIRECTION ( 'NONE',  ( -0.0000000000000000000, -0.0000000000000000000, -1.000000000000000000 ) ) ;
#351 = CARTESIAN_POINT ( 'NONE',  ( -151.0000000000000000, 0.0000000000000000000, 0.0000000000000000000 ) ) ;
#352 = PLANE ( 'NONE',  #1 ) ;
#353 = APPROVAL_STATUS ( 'not_yet_approved' ) ;
#354 = DIRECTION ( 'NONE',  ( 0.0000000000000000000, -1.000000000000000000, 0.0000000000000000000 ) ) ;
#355 = DIRECTION ( 'NONE',  ( -0.0000000000000000000, 0.0000000000000000000, -1.000000000000000000 ) ) ;
#356 = APPROVAL_ROLE ( '' ) ;
#357 =( LENGTH_UNIT ( ) NAMED_UNIT ( * ) SI_UNIT ( .MILLI., .METRE. ) );
#358 =( NAMED_UNIT ( * ) SI_UNIT ( $, .STERADIAN. ) SOLID_ANGLE_UNIT ( ) );
#359 = DATE_TIME_ROLE ( 'classification_date' ) ;
#360 = PERSON_AND_ORGANIZATION_ROLE ( 'classification_officer' ) ;
#361 = SECURITY_CLASSIFICATION_LEVEL ( 'unclassified' ) ;
#362 = PERSON_AND_ORGANIZATION_ROLE ( 'design_supplier' ) ;
#363 = PERSON_AND_ORGANIZATION_ROLE ( 'creator' ) ;
#364 = APPROVAL_ROLE ( '' ) ;
#365 = APPROVAL_STATUS ( 'not_yet_approved' ) ;
#366 = APPLICATION_PROTOCOL_DEFINITION ( 'international standard', 'config_control_design', 1994, #373 ) ;
#367 = DATE_TIME_ROLE ( 'creation_date' ) ;
#368 = PERSON_AND_ORGANIZATION_ROLE ( 'creator' ) ;
#369 = DIRECTION ( 'NONE',  ( 0.0000000000000000000, -0.0000000000000000000, -1.000000000000000000 ) ) ;
#370 = APPROVAL_ROLE ( '' ) ;
#371 = APPROVAL_STATUS ( 'not_yet_approved' ) ;
#372 = APPLICATION_PROTOCOL_DEFINITION ( 'international standard', 'config_control_design', 1994, #376 ) ;
#373 = APPLICATION_CONTEXT ( 'configuration controlled 3d designs of mechanical parts and assemblies' ) ;
#374 = CARTESIAN_POINT ( 'NONE',  ( 1.734723475976807100E-015, 0.0000000000000000000, 17.49999999999999600 ) ) ;
#375 = MECHANICAL_CONTEXT ( 'NONE', #373, 'mechanical' ) ;
#376 = APPLICATION_CONTEXT ( 'configuration controlled 3d designs of mechanical parts and assemblies' ) ;
#377 = PERSON_AND_ORGANIZATION_ROLE ( 'design_owner' ) ;
#378 = DIRECTION ( 'NONE',  ( 1.000000000000000000, 0.0000000000000000000, 0.0000000000000000000 ) ) ;
#379 = DIRECTION ( 'NONE',  ( 0.0000000000000000000, 0.0000000000000000000, 1.000000000000000000 ) ) ;
#380 = CARTESIAN_POINT ( 'NONE',  ( 0.0000000000000000000, 0.0000000000000000000, 460.0000000000000000 ) ) ;
#381 = DIRECTION ( 'NONE',  ( -1.000000000000000000, 0.0000000000000000000, 0.0000000000000000000 ) ) ;
#382 = DIRECTION ( 'NONE',  ( 0.0000000000000000000, -0.0000000000000000000, 1.000000000000000000 ) ) ;
#383 = PLANE ( 'NONE',  #7 ) ;
#384 = CARTESIAN_POINT ( 'NONE',  ( -151.0000000000000000, 0.0000000000000000000, 460.0000000000000000 ) ) ;
#385 = CARTESIAN_POINT ( 'NONE',  ( 1.734723475976807100E-015, 0.5999999999999999800, 17.49999999999999600 ) ) ;
#386 = PLANE ( 'NONE',  #8 ) ;
#387 = CARTESIAN_POINT ( 'NONE',  ( 0.0000000000000000000, 0.0000000000000000000, 0.0000000000000000000 ) ) ;
#388 = DIRECTION ( 'NONE',  ( -0.0000000000000000000, 0.0000000000000000000, -1.000000000000000000 ) ) ;
#389 = DIRECTION ( 'NONE',  ( 1.000000000000000000, 0.0000000000000000000, -0.0000000000000000000 ) ) ;
#390 = PLANE ( 'NONE',  #9 ) ;
#391 = PLANE ( 'NONE',  #6 ) ;
#392 = DIRECTION ( 'NONE',  ( -1.000000000000000000, 0.0000000000000000000, 0.0000000000000000000 ) ) ;
#393 = CARTESIAN_POINT ( 'NONE',  ( -151.0000000000000000, 0.0000000000000000000, 460.0000000000000000 ) ) ;
#394 = CARTESIAN_POINT ( 'NONE',  ( 151.5999999999999900, -14.00000000000000000, 460.0000000000000000 ) ) ;
#395 = DIRECTION ( 'NONE',  ( 0.0000000000000000000, 0.0000000000000000000, 1.000000000000000000 ) ) ;
#396 = CARTESIAN_POINT ( 'NONE',  ( -151.0000000000000000, -14.00000000000000000, 460.0000000000000000 ) ) ;
#397 = CARTESIAN_POINT ( 'NONE',  ( -151.5999999999999900, -14.00000000000000000, 0.0000000000000000000 ) ) ;
#398 = CARTESIAN_POINT ( 'NONE',  ( 151.0000000000000000, 0.0000000000000000000, 460.0000000000000000 ) ) ;
#399 = CARTESIAN_POINT ( 'NONE',  ( 151.5999999999999900, 0.5999999999999999800, 0.0000000000000000000 ) ) ;
#400 = CARTESIAN_POINT ( 'NONE',  ( 151.0000000000000000, -14.00000000000000000, 0.0000000000000000000 ) ) ;
#401 = CARTESIAN_POINT ( 'NONE',  ( 151.5999999999999900, -14.00000000000000000, 0.0000000000000000000 ) ) ;
#402 = CARTESIAN_POINT ( 'NONE',  ( -151.5999999999999900, -14.00000000000000000, 460.0000000000000000 ) ) ;
#403 = CARTESIAN_POINT ( 'NONE',  ( 151.0000000000000000, 0.0000000000000000000, 0.0000000000000000000 ) ) ;
#404 = DIRECTION ( 'NONE',  ( -0.0000000000000000000, 1.000000000000000000, -0.0000000000000000000 ) ) ;
#405 = CARTESIAN_POINT ( 'NONE',  ( -151.0000000000000000, 0.0000000000000000000, 0.0000000000000000000 ) ) ;
#406 = DIRECTION ( 'NONE',  ( 0.0000000000000000000, 0.0000000000000000000, 1.000000000000000000 ) ) ;
#407 = CARTESIAN_POINT ( 'NONE',  ( -151.5999999999999900, 0.0000000000000000000, 460.0000000000000000 ) ) ;
#408 =( NAMED_UNIT ( * ) PLANE_ANGLE_UNIT ( ) SI_UNIT ( $, .RADIAN. ) );
#409 = PLANE ( 'NONE',  #15 ) ;
#410 = DIRECTION ( 'NONE',  ( -1.000000000000000000, 0.0000000000000000000, 0.0000000000000000000 ) ) ;
#411 = DIRECTION ( 'NONE',  ( 0.0000000000000000000, 0.0000000000000000000, 1.000000000000000000 ) ) ;
#412 = CARTESIAN_POINT ( 'NONE',  ( 1.734723475976807100E-015, -14.00099999999999900, 14.99999999999999300 ) ) ;
#413 = DIRECTION ( 'NONE',  ( 0.0000000000000000000, 1.000000000000000000, 0.0000000000000000000 ) ) ;
#414 = CARTESIAN_POINT ( 'NONE',  ( -151.0000000000000000, 0.5999999999999999800, 460.0000000000000000 ) ) ;
#415 = CARTESIAN_POINT ( 'NONE',  ( 151.5999999999999900, 0.0000000000000000000, 460.0000000000000000 ) ) ;
#416 = PLANE ( 'NONE',  #13 ) ;
#417 = DIRECTION ( 'NONE',  ( -0.0000000000000000000, 1.000000000000000000, -0.0000000000000000000 ) ) ;
#418 = CARTESIAN_POINT ( 'NONE',  ( -151.0000000000000000, -14.00000000000000000, 460.0000000000000000 ) ) ;
#419 = DIRECTION ( 'NONE',  ( 0.0000000000000000000, -0.0000000000000000000, 1.000000000000000000 ) ) ;
#420 = CARTESIAN_POINT ( 'NONE',  ( 0.0000000000000000000, 0.5999999999999999800, 442.5000000000000600 ) ) ;
#421 = PLANE ( 'NONE',  #11 ) ;
#422 = DIRECTION ( 'NONE',  ( 0.0000000000000000000, -0.0000000000000000000, -1.000000000000000000 ) ) ;
#423 = CARTESIAN_POINT ( 'NONE',  ( -151.0000000000000000, 0.0000000000000000000, 460.0000000000000000 ) ) ;
#424 = CARTESIAN_POINT ( 'NONE',  ( 151.0000000000000000, 0.0000000000000000000, 460.0000000000000000 ) ) ;
#425 = PLANE ( 'NONE',  #3 ) ;
#426 = DIRECTION ( 'NONE',  ( 0.0000000000000000000, -1.000000000000000000, 0.0000000000000000000 ) ) ;
#427 = PLANE ( 'NONE',  #10 ) ;
#428 = DIRECTION ( 'NONE',  ( 0.0000000000000000000, 1.000000000000000000, 0.0000000000000000000 ) ) ;
#429 = DIRECTION ( 'NONE',  ( 1.000000000000000000, 0.0000000000000000000, -0.0000000000000000000 ) ) ;
#430 = DIRECTION ( 'NONE',  ( -0.0000000000000000000, 0.0000000000000000000, -1.000000000000000000 ) ) ;
#431 = DIRECTION ( 'NONE',  ( -1.000000000000000000, 0.0000000000000000000, 0.0000000000000000000 ) ) ;
#432 = DIRECTION ( 'NONE',  ( -0.0000000000000000000, 0.0000000000000000000, -1.000000000000000000 ) ) ;
#433 = CARTESIAN_POINT ( 'NONE',  ( 0.0000000000000000000, 0.0000000000000000000, 447.5000000000000600 ) ) ;
#434 = CARTESIAN_POINT ( 'NONE',  ( 0.0000000000000000000, 0.0000000000000000000, 0.0000000000000000000 ) ) ;
#435 = CARTESIAN_POINT ( 'NONE',  ( 0.0000000000000000000, -14.00099999999999900, 445.0000000000000600 ) ) ;
#436 = CARTESIAN_POINT ( 'NONE',  ( 151.5999999999999900, -14.00000000000000000, 460.0000000000000000 ) ) ;
#437 = DIRECTION ( 'NONE',  ( 0.0000000000000000000, 0.0000000000000000000, 1.000000000000000000 ) ) ;
ENDSEC;
END-ISO-10303-21;
