ISO-10303-21;
HEADER;
FILE_DESCRIPTION (( 'STEP AP203' ),
    '1' );
FILE_NAME ('Êðûøêà íà óãîë âåðòèêàëüíûé âíåøíèé CDSD 90_38283.STEP',
    '2012-11-09T08:45:05',
    ( 'Àñååâ' ),
    ( '' ),
    'SwSTEP 2.0',
    'SolidWorks 2012',
    '' );
FILE_SCHEMA (( 'CONFIG_CONTROL_DESIGN' ));
ENDSEC;

DATA;
#1 = FACE_OUTER_BOUND ( 'NONE', #23, .T. ) ;
#2 = LINE ( 'NONE', #371, #50 ) ;
#3 = FACE_BOUND ( 'NONE', #32, .T. ) ;
#4 = FACE_OUTER_BOUND ( 'NONE', #36, .T. ) ;
#5 = CYLINDRICAL_SURFACE ( 'NONE', #239, 2.500000000000002200 ) ;
#6 = FACE_OUTER_BOUND ( 'NONE', #116, .T. ) ;
#7 = LINE ( 'NONE', #359, #95 ) ;
#8 = FACE_OUTER_BOUND ( 'NONE', #37, .T. ) ;
#9 = FACE_OUTER_BOUND ( 'NONE', #34, .T. ) ;
#10 = FACE_BOUND ( 'NONE', #27, .T. ) ;
#11 = FACE_OUTER_BOUND ( 'NONE', #41, .T. ) ;
#12 = FACE_BOUND ( 'NONE', #24, .T. ) ;
#13 = CYLINDRICAL_SURFACE ( 'NONE', #245, 2.500000000000002200 ) ;
#14 = FACE_BOUND ( 'NONE', #40, .T. ) ;
#15 = FACE_OUTER_BOUND ( 'NONE', #28, .T. ) ;
#16 = FACE_OUTER_BOUND ( 'NONE', #31, .T. ) ;
#17 = FACE_OUTER_BOUND ( 'NONE', #38, .T. ) ;
#18 = FACE_OUTER_BOUND ( 'NONE', #39, .T. ) ;
#19 = FACE_OUTER_BOUND ( 'NONE', #42, .T. ) ;
#20 = FACE_OUTER_BOUND ( 'NONE', #22, .T. ) ;
#21 = FACE_OUTER_BOUND ( 'NONE', #25, .T. ) ;
#22 = EDGE_LOOP ( 'NONE', ( #101, #126, #102, #104 ) ) ;
#23 = EDGE_LOOP ( 'NONE', ( #122, #99, #121, #100 ) ) ;
#24 = EDGE_LOOP ( 'NONE', ( #106 ) ) ;
#25 = EDGE_LOOP ( 'NONE', ( #123, #89, #62, #111 ) ) ;
#26 = ORIENTED_EDGE ( 'NONE', *, *, #278, .F. ) ;
#27 = EDGE_LOOP ( 'NONE', ( #115 ) ) ;
#28 = EDGE_LOOP ( 'NONE', ( #105, #88, #87, #109 ) ) ;
#29 = FACE_OUTER_BOUND ( 'NONE', #33, .T. ) ;
#30 = CIRCLE ( 'NONE', #224, 2.500000000000002200 ) ;
#31 = EDGE_LOOP ( 'NONE', ( #26, #114, #120, #64 ) ) ;
#32 = EDGE_LOOP ( 'NONE', ( #90 ) ) ;
#33 = EDGE_LOOP ( 'NONE', ( #67 ) ) ;
#34 = EDGE_LOOP ( 'NONE', ( #113, #112, #63, #68 ) ) ;
#35 = VECTOR ( 'NONE', #327, 1000.000000000000000 ) ;
#36 = EDGE_LOOP ( 'NONE', ( #80, #76, #77, #74, #75, #71, #73, #69 ) ) ;
#37 = EDGE_LOOP ( 'NONE', ( #72 ) ) ;
#38 = EDGE_LOOP ( 'NONE', ( #70 ) ) ;
#39 = EDGE_LOOP ( 'NONE', ( #66 ) ) ;
#40 = EDGE_LOOP ( 'NONE', ( #103 ) ) ;
#41 = EDGE_LOOP ( 'NONE', ( #107, #96, #92, #94 ) ) ;
#42 = EDGE_LOOP ( 'NONE', ( #131, #97, #93, #98 ) ) ;
#43 = VERTEX_POINT ( 'NONE', #435 ) ;
#44 = VERTEX_POINT ( 'NONE', #434 ) ;
#45 = VERTEX_POINT ( 'NONE', #437 ) ;
#46 = VERTEX_POINT ( 'NONE', #436 ) ;
#47 = VERTEX_POINT ( 'NONE', #432 ) ;
#48 = VERTEX_POINT ( 'NONE', #433 ) ;
#49 = VERTEX_POINT ( 'NONE', #430 ) ;
#50 = VECTOR ( 'NONE', #361, 1000.000000000000000 ) ;
#51 = VERTEX_POINT ( 'NONE', #429 ) ;
#52 = CIRCLE ( 'NONE', #227, 2.500000000000002200 ) ;
#53 = VERTEX_POINT ( 'NONE', #428 ) ;
#54 = VERTEX_POINT ( 'NONE', #427 ) ;
#55 = LINE ( 'NONE', #368, #91 ) ;
#56 = VERTEX_POINT ( 'NONE', #426 ) ;
#57 = VERTEX_POINT ( 'NONE', #425 ) ;
#58 = VERTEX_POINT ( 'NONE', #424 ) ;
#59 = VERTEX_POINT ( 'NONE', #423 ) ;
#60 = VERTEX_POINT ( 'NONE', #422 ) ;
#61 = VERTEX_POINT ( 'NONE', #421 ) ;
#62 = ORIENTED_EDGE ( 'NONE', *, *, #249, .F. ) ;
#63 = ORIENTED_EDGE ( 'NONE', *, *, #254, .F. ) ;
#64 = ORIENTED_EDGE ( 'NONE', *, *, #276, .T. ) ;
#65 = CLOSED_SHELL ( 'NONE', ( #212, #220, #210, #213, #216, #214, #211, #217, #219, #218, #209, #215 ) ) ;
#66 = ORIENTED_EDGE ( 'NONE', *, *, #252, .T. ) ;
#67 = ORIENTED_EDGE ( 'NONE', *, *, #268, .T. ) ;
#68 = ORIENTED_EDGE ( 'NONE', *, *, #248, .T. ) ;
#69 = ORIENTED_EDGE ( 'NONE', *, *, #259, .T. ) ;
#70 = ORIENTED_EDGE ( 'NONE', *, *, #269, .T. ) ;
#71 = ORIENTED_EDGE ( 'NONE', *, *, #270, .T. ) ;
#72 = ORIENTED_EDGE ( 'NONE', *, *, #251, .T. ) ;
#73 = ORIENTED_EDGE ( 'NONE', *, *, #263, .T. ) ;
#74 = ORIENTED_EDGE ( 'NONE', *, *, #278, .T. ) ;
#75 = ORIENTED_EDGE ( 'NONE', *, *, #274, .T. ) ;
#76 = ORIENTED_EDGE ( 'NONE', *, *, #253, .F. ) ;
#77 = ORIENTED_EDGE ( 'NONE', *, *, #247, .F. ) ;
#78 = ORIENTED_EDGE ( 'NONE', *, *, #254, .T. ) ;
#79 = VECTOR ( 'NONE', #320, 1000.000000000000000 ) ;
#80 = ORIENTED_EDGE ( 'NONE', *, *, #266, .F. ) ;
#81 = ORIENTED_EDGE ( 'NONE', *, *, #255, .F. ) ;
#82 = ORIENTED_EDGE ( 'NONE', *, *, #249, .T. ) ;
#83 = ORIENTED_EDGE ( 'NONE', *, *, #272, .F. ) ;
#84 = ORIENTED_EDGE ( 'NONE', *, *, #277, .F. ) ;
#85 = ORIENTED_EDGE ( 'NONE', *, *, #261, .F. ) ;
#86 = ORIENTED_EDGE ( 'NONE', *, *, #267, .F. ) ;
#87 = ORIENTED_EDGE ( 'NONE', *, *, #272, .T. ) ;
#88 = ORIENTED_EDGE ( 'NONE', *, *, #271, .F. ) ;
#89 = ORIENTED_EDGE ( 'NONE', *, *, #248, .F. ) ;
#90 = ORIENTED_EDGE ( 'NONE', *, *, #252, .F. ) ;
#91 = VECTOR ( 'NONE', #358, 1000.000000000000000 ) ;
#92 = ORIENTED_EDGE ( 'NONE', *, *, #277, .T. ) ;
#93 = ORIENTED_EDGE ( 'NONE', *, *, #246, .F. ) ;
#94 = ORIENTED_EDGE ( 'NONE', *, *, #271, .T. ) ;
#95 = VECTOR ( 'NONE', #335, 1000.000000000000000 ) ;
#96 = ORIENTED_EDGE ( 'NONE', *, *, #276, .F. ) ;
#97 = ORIENTED_EDGE ( 'NONE', *, *, #257, .F. ) ;
#98 = ORIENTED_EDGE ( 'NONE', *, *, #258, .T. ) ;
#99 = ORIENTED_EDGE ( 'NONE', *, *, #260, .F. ) ;
#100 = ORIENTED_EDGE ( 'NONE', *, *, #257, .T. ) ;
#101 = ORIENTED_EDGE ( 'NONE', *, *, #263, .F. ) ;
#102 = ORIENTED_EDGE ( 'NONE', *, *, #267, .T. ) ;
#103 = ORIENTED_EDGE ( 'NONE', *, *, #268, .F. ) ;
#104 = ORIENTED_EDGE ( 'NONE', *, *, #260, .T. ) ;
#105 = ORIENTED_EDGE ( 'NONE', *, *, #270, .F. ) ;
#106 = ORIENTED_EDGE ( 'NONE', *, *, #269, .F. ) ;
#107 = ORIENTED_EDGE ( 'NONE', *, *, #274, .F. ) ;
#108 = VECTOR ( 'NONE', #317, 1000.000000000000000 ) ;
#109 = ORIENTED_EDGE ( 'NONE', *, *, #264, .T. ) ;
#110 = LINE ( 'NONE', #372, #129 ) ;
#111 = ORIENTED_EDGE ( 'NONE', *, *, #256, .T. ) ;
#112 = ORIENTED_EDGE ( 'NONE', *, *, #258, .F. ) ;
#113 = ORIENTED_EDGE ( 'NONE', *, *, #253, .T. ) ;
#114 = ORIENTED_EDGE ( 'NONE', *, *, #256, .F. ) ;
#115 = ORIENTED_EDGE ( 'NONE', *, *, #251, .F. ) ;
#116 = EDGE_LOOP ( 'NONE', ( #119, #85, #86, #83, #84, #81, #82, #78 ) ) ;
#117 = LINE ( 'NONE', #357, #35 ) ;
#118 = VECTOR ( 'NONE', #313, 1000.000000000000000 ) ;
#119 = ORIENTED_EDGE ( 'NONE', *, *, #246, .T. ) ;
#120 = ORIENTED_EDGE ( 'NONE', *, *, #255, .T. ) ;
#121 = ORIENTED_EDGE ( 'NONE', *, *, #261, .T. ) ;
#122 = ORIENTED_EDGE ( 'NONE', *, *, #259, .F. ) ;
#123 = ORIENTED_EDGE ( 'NONE', *, *, #247, .T. ) ;
#124 = LINE ( 'NONE', #329, #108 ) ;
#125 = LINE ( 'NONE', #315, #118 ) ;
#126 = ORIENTED_EDGE ( 'NONE', *, *, #264, .F. ) ;
#127 = VECTOR ( 'NONE', #366, 1000.000000000000000 ) ;
#128 = LINE ( 'NONE', #367, #127 ) ;
#129 = VECTOR ( 'NONE', #379, 1000.000000000000000 ) ;
#130 = LINE ( 'NONE', #326, #79 ) ;
#131 = ORIENTED_EDGE ( 'NONE', *, *, #266, .T. ) ;
#132 = PRODUCT ( 'Êðûøêà íà óãîë âåðòèêàëüíûé âíåøíèé CDSD 90_38283', 'Êðûøêà íà óãîë âåðòèêàëüíûé âíåøíèé CDSD 90_38283', '', ( #338 ) ) ;
#133 = PERSON ( 'UNSPECIFIED', 'UNSPECIFIED', 'UNSPECIFIED', ('UNSPECIFIED'), ('UNSPECIFIED'), ('UNSPECIFIED') ) ;
#134 = LINE ( 'NONE', #295, #143 ) ;
#135 = LINE ( 'NONE', #304, #148 ) ;
#136 = VECTOR ( 'NONE', #298, 1000.000000000000000 ) ;
#137 = LINE ( 'NONE', #292, #198 ) ;
#138 = VECTOR ( 'NONE', #300, 1000.000000000000000 ) ;
#139 = DATE_AND_TIME ( #160, #187 ) ;
#140 = LINE ( 'NONE', #289, #205 ) ;
#141 = LINE ( 'NONE', #355, #167 ) ;
#142 = CIRCLE ( 'NONE', #222, 2.500000000000002200 ) ;
#143 = VECTOR ( 'NONE', #293, 1000.000000000000000 ) ;
#144 = VECTOR ( 'NONE', #319, 1000.000000000000000 ) ;
#145 = LINE ( 'NONE', #288, #149 ) ;
#146 = VERTEX_POINT ( 'NONE', #362 ) ;
#147 = LINE ( 'NONE', #294, #144 ) ;
#148 = VECTOR ( 'NONE', #291, 1000.000000000000000 ) ;
#149 = VECTOR ( 'NONE', #287, 1000.000000000000000 ) ;
#150 = CIRCLE ( 'NONE', #223, 2.500000000000002200 ) ;
#151 = APPROVAL_DATE_TIME ( #152, #225 ) ;
#152 = DATE_AND_TIME ( #155, #154 ) ;
#153 = COORDINATED_UNIVERSAL_TIME_OFFSET ( 4, 0, .AHEAD. ) ;
#154 = LOCAL_TIME ( 12, 45, 5.000000000000000000, #153 ) ;
#155 = CALENDAR_DATE ( 2012, 9, 11 ) ;
#156 = DATE_AND_TIME ( #159, #161 ) ;
#157 = PERSON_AND_ORGANIZATION ( #133, #182 ) ;
#158 = APPROVAL_PERSON_ORGANIZATION ( #157, #225, #318 ) ;
#159 = CALENDAR_DATE ( 2012, 9, 11 ) ;
#160 = CALENDAR_DATE ( 2012, 9, 11 ) ;
#161 = LOCAL_TIME ( 12, 45, 5.000000000000000000, #166 ) ;
#162 = PERSON_AND_ORGANIZATION ( #133, #182 ) ;
#163 = COORDINATED_UNIVERSAL_TIME_OFFSET ( 4, 0, .AHEAD. ) ;
#164 = LINE ( 'NONE', #374, #201 ) ;
#165 = LINE ( 'NONE', #369, #191 ) ;
#166 = COORDINATED_UNIVERSAL_TIME_OFFSET ( 4, 0, .AHEAD. ) ;
#167 = VECTOR ( 'NONE', #299, 1000.000000000000000 ) ;
#168 = APPROVAL_DATE_TIME ( #169, #281 ) ;
#169 = DATE_AND_TIME ( #170, #171 ) ;
#170 = CALENDAR_DATE ( 2012, 9, 11 ) ;
#171 = LOCAL_TIME ( 12, 45, 5.000000000000000000, #172 ) ;
#172 = COORDINATED_UNIVERSAL_TIME_OFFSET ( 4, 0, .AHEAD. ) ;
#173 = APPROVAL_PERSON_ORGANIZATION ( #174, #281, #301 ) ;
#174 = PERSON_AND_ORGANIZATION ( #133, #182 ) ;
#175 = DATE_AND_TIME ( #177, #178 ) ;
#176 = PERSON_AND_ORGANIZATION ( #133, #182 ) ;
#177 = CALENDAR_DATE ( 2012, 9, 11 ) ;
#178 = LOCAL_TIME ( 12, 45, 5.000000000000000000, #179 ) ;
#179 = COORDINATED_UNIVERSAL_TIME_OFFSET ( 4, 0, .AHEAD. ) ;
#180 = PERSON_AND_ORGANIZATION ( #133, #182 ) ;
#181 = PERSON_AND_ORGANIZATION ( #133, #182 ) ;
#182 = ORGANIZATION ( 'UNSPECIFIED', 'UNSPECIFIED', '' ) ;
#183 = LINE ( 'NONE', #314, #203 ) ;
#184 = VERTEX_POINT ( 'NONE', #360 ) ;
#185 = LINE ( 'NONE', #347, #197 ) ;
#186 = PERSON_AND_ORGANIZATION ( #133, #182 ) ;
#187 = LOCAL_TIME ( 12, 45, 5.000000000000000000, #163 ) ;
#188 = VERTEX_POINT ( 'NONE', #351 ) ;
#189 = VECTOR ( 'NONE', #309, 1000.000000000000000 ) ;
#190 = APPROVAL_PERSON_ORGANIZATION ( #176, #275, #328 ) ;
#191 = VECTOR ( 'NONE', #364, 1000.000000000000000 ) ;
#192 = PERSON_AND_ORGANIZATION ( #133, #182 ) ;
#193 = APPROVAL_DATE_TIME ( #139, #275 ) ;
#194 = LINE ( 'NONE', #297, #204 ) ;
#195 = SHAPE_DEFINITION_REPRESENTATION ( #286, #207 ) ;
#196 = LINE ( 'NONE', #321, #189 ) ;
#197 = VECTOR ( 'NONE', #312, 1000.000000000000000 ) ;
#198 = VECTOR ( 'NONE', #290, 1000.000000000000000 ) ;
#199 = VERTEX_POINT ( 'NONE', #365 ) ;
#200 = LINE ( 'NONE', #305, #136 ) ;
#201 = VECTOR ( 'NONE', #370, 1000.000000000000000 ) ;
#202 = LINE ( 'NONE', #310, #138 ) ;
#203 = VECTOR ( 'NONE', #302, 1000.000000000000000 ) ;
#204 = VECTOR ( 'NONE', #296, 1000.000000000000000 ) ;
#205 = VECTOR ( 'NONE', #431, 1000.000000000000000 ) ;
#206 = MANIFOLD_SOLID_BREP ( 'Âûðåç-Âûòÿíóòü1', #65 ) ;
#207 = ADVANCED_BREP_SHAPE_REPRESENTATION ( '¦¨v°úð ýð ºóþû òõ¨ªøúðû¹ývù òýõ°ýøù CDSD 90_38283', ( #206, #250 ), #221 ) ;
#208 = UNCERTAINTY_MEASURE_WITH_UNIT (LENGTH_MEASURE( 1.000000000000000100E-005 ), #353, 'distance_accuracy_value', 'NONE');
#209 = ADVANCED_FACE ( 'NONE', ( #17, #18 ), #13, .F. ) ;
#210 = ADVANCED_FACE ( 'NONE', ( #20 ), #416, .T. ) ;
#211 = ADVANCED_FACE ( 'NONE', ( #21 ), #411, .F. ) ;
#212 = ADVANCED_FACE ( 'NONE', ( #19 ), #407, .F. ) ;
#213 = ADVANCED_FACE ( 'NONE', ( #14, #12, #15 ), #402, .T. ) ;
#214 = ADVANCED_FACE ( 'NONE', ( #16 ), #399, .T. ) ;
#215 = ADVANCED_FACE ( 'NONE', ( #29, #8 ), #5, .F. ) ;
#216 = ADVANCED_FACE ( 'NONE', ( #11 ), #393, .T. ) ;
#217 = ADVANCED_FACE ( 'NONE', ( #10, #3, #9 ), #387, .F. ) ;
#218 = ADVANCED_FACE ( 'NONE', ( #4 ), #384, .T. ) ;
#219 = ADVANCED_FACE ( 'NONE', ( #6 ), #380, .F. ) ;
#220 = ADVANCED_FACE ( 'NONE', ( #1 ), #376, .T. ) ;
#221 =( GEOMETRIC_REPRESENTATION_CONTEXT ( 3 ) GLOBAL_UNCERTAINTY_ASSIGNED_CONTEXT ( ( #208 ) ) GLOBAL_UNIT_ASSIGNED_CONTEXT ( ( #353, #352, #349 ) ) REPRESENTATION_CONTEXT ( 'NONE', 'WORKASPACE' ) );
#222 = AXIS2_PLACEMENT_3D ( 'NONE', #334, #350, #322 ) ;
#223 = AXIS2_PLACEMENT_3D ( 'NONE', #354, #341, #339 ) ;
#224 = AXIS2_PLACEMENT_3D ( 'NONE', #340, #337, #336 ) ;
#225 = APPROVAL ( #323, 'UNSPECIFIED' ) ;
#226 = AXIS2_PLACEMENT_3D ( 'NONE', #383, #375, #373 ) ;
#227 = AXIS2_PLACEMENT_3D ( 'NONE', #344, #343, #342 ) ;
#228 = AXIS2_PLACEMENT_3D ( 'NONE', #388, #378, #377 ) ;
#229 = AXIS2_PLACEMENT_3D ( 'NONE', #386, #382, #381 ) ;
#230 = CC_DESIGN_APPROVAL ( #225, ( #236 ) ) ;
#231 = CC_DESIGN_PERSON_AND_ORGANIZATION_ASSIGNMENT ( #181, #311, ( #236 ) ) ;
#232 = SECURITY_CLASSIFICATION ( '', '', #308 ) ;
#233 = CC_DESIGN_DATE_AND_TIME_ASSIGNMENT ( #156, #324, ( #234 ) ) ;
#234 = PRODUCT_DEFINITION ( 'UNKNOWN', '', #236, #285 ) ;
#235 = CC_DESIGN_PERSON_AND_ORGANIZATION_ASSIGNMENT ( #192, #316, ( #236 ) ) ;
#236 = PRODUCT_DEFINITION_FORMATION_WITH_SPECIFIED_SOURCE ( 'ANY', '', #132, .NOT_KNOWN. ) ;
#237 = AXIS2_PLACEMENT_3D ( 'NONE', #389, #392, #385 ) ;
#238 = AXIS2_PLACEMENT_3D ( 'NONE', #394, #391, #390 ) ;
#239 = AXIS2_PLACEMENT_3D ( 'NONE', #395, #398, #403 ) ;
#240 = AXIS2_PLACEMENT_3D ( 'NONE', #401, #397, #396 ) ;
#241 = AXIS2_PLACEMENT_3D ( 'NONE', #404, #410, #400 ) ;
#242 = AXIS2_PLACEMENT_3D ( 'NONE', #414, #406, #405 ) ;
#243 = AXIS2_PLACEMENT_3D ( 'NONE', #415, #409, #408 ) ;
#244 = AXIS2_PLACEMENT_3D ( 'NONE', #418, #413, #412 ) ;
#245 = AXIS2_PLACEMENT_3D ( 'NONE', #420, #419, #417 ) ;
#246 = EDGE_CURVE ( 'NONE', #47, #49, #128, .T. ) ;
#247 = EDGE_CURVE ( 'NONE', #56, #53, #110, .T. ) ;
#248 = EDGE_CURVE ( 'NONE', #43, #53, #2, .T. ) ;
#249 = EDGE_CURVE ( 'NONE', #59, #43, #55, .T. ) ;
#250 = AXIS2_PLACEMENT_3D ( 'NONE', #363, #356, #345 ) ;
#251 = EDGE_CURVE ( 'NONE', #199, #199, #52, .T. ) ;
#252 = EDGE_CURVE ( 'NONE', #188, #188, #30, .T. ) ;
#253 = EDGE_CURVE ( 'NONE', #53, #58, #7, .T. ) ;
#254 = EDGE_CURVE ( 'NONE', #43, #47, #117, .T. ) ;
#255 = EDGE_CURVE ( 'NONE', #59, #57, #130, .T. ) ;
#256 = EDGE_CURVE ( 'NONE', #59, #56, #124, .T. ) ;
#257 = EDGE_CURVE ( 'NONE', #49, #45, #125, .T. ) ;
#258 = EDGE_CURVE ( 'NONE', #47, #58, #185, .T. ) ;
#259 = EDGE_CURVE ( 'NONE', #51, #45, #196, .T. ) ;
#260 = EDGE_CURVE ( 'NONE', #48, #51, #183, .T. ) ;
#261 = EDGE_CURVE ( 'NONE', #48, #49, #202, .T. ) ;
#262 = CC_DESIGN_DATE_AND_TIME_ASSIGNMENT ( #175, #306, ( #232 ) ) ;
#263 = EDGE_CURVE ( 'NONE', #61, #51, #194, .T. ) ;
#264 = EDGE_CURVE ( 'NONE', #60, #61, #134, .T. ) ;
#265 = CC_DESIGN_APPROVAL ( #275, ( #234 ) ) ;
#266 = EDGE_CURVE ( 'NONE', #58, #45, #135, .T. ) ;
#267 = EDGE_CURVE ( 'NONE', #60, #48, #145, .T. ) ;
#268 = EDGE_CURVE ( 'NONE', #146, #146, #150, .T. ) ;
#269 = EDGE_CURVE ( 'NONE', #184, #184, #142, .T. ) ;
#270 = EDGE_CURVE ( 'NONE', #46, #61, #147, .T. ) ;
#271 = EDGE_CURVE ( 'NONE', #54, #46, #141, .T. ) ;
#272 = EDGE_CURVE ( 'NONE', #54, #60, #200, .T. ) ;
#273 = CC_DESIGN_PERSON_AND_ORGANIZATION_ASSIGNMENT ( #162, #325, ( #234 ) ) ;
#274 = EDGE_CURVE ( 'NONE', #44, #46, #137, .T. ) ;
#275 = APPROVAL ( #330, 'UNSPECIFIED' ) ;
#276 = EDGE_CURVE ( 'NONE', #57, #44, #140, .T. ) ;
#277 = EDGE_CURVE ( 'NONE', #57, #54, #164, .T. ) ;
#278 = EDGE_CURVE ( 'NONE', #56, #44, #165, .T. ) ;
#279 = PRODUCT_RELATED_PRODUCT_CATEGORY ( 'detail', '', ( #132 ) ) ;
#280 = CC_DESIGN_SECURITY_CLASSIFICATION ( #232, ( #236 ) ) ;
#281 = APPROVAL ( #303, 'UNSPECIFIED' ) ;
#282 = CC_DESIGN_PERSON_AND_ORGANIZATION_ASSIGNMENT ( #186, #333, ( #132 ) ) ;
#283 = CC_DESIGN_APPROVAL ( #281, ( #232 ) ) ;
#284 = CC_DESIGN_PERSON_AND_ORGANIZATION_ASSIGNMENT ( #180, #307, ( #232 ) ) ;
#285 = DESIGN_CONTEXT ( 'detailed design', #332, 'design' ) ;
#286 = PRODUCT_DEFINITION_SHAPE ( 'NONE', 'NONE',  #234 ) ;
#287 = DIRECTION ( 'NONE',  ( -0.0000000000000000000, -1.000000000000000000, 0.0000000000000000000 ) ) ;
#288 = CARTESIAN_POINT ( 'NONE',  ( 76.79999999999999700, 0.0000000000000000000, 281.0000000000000000 ) ) ;
#289 = CARTESIAN_POINT ( 'NONE',  ( -76.79999999999999700, -14.00000000000000000, 281.0000000000000000 ) ) ;
#290 = DIRECTION ( 'NONE',  ( 0.0000000000000000000, 1.000000000000000000, 0.0000000000000000000 ) ) ;
#291 = DIRECTION ( 'NONE',  ( 0.0000000000000000000, -1.000000000000000000, 0.0000000000000000000 ) ) ;
#292 = CARTESIAN_POINT ( 'NONE',  ( -76.79999999999999700, 0.0000000000000000000, 0.0000000000000000000 ) ) ;
#293 = DIRECTION ( 'NONE',  ( -0.0000000000000000000, -0.0000000000000000000, -1.000000000000000000 ) ) ;
#294 = CARTESIAN_POINT ( 'NONE',  ( -76.00000000000000000, 0.8000000000000000400, 0.0000000000000000000 ) ) ;
#295 = CARTESIAN_POINT ( 'NONE',  ( 76.79999999999999700, 0.8000000000000000400, 281.0000000000000000 ) ) ;
#296 = DIRECTION ( 'NONE',  ( -0.0000000000000000000, -1.000000000000000000, 0.0000000000000000000 ) ) ;
#297 = CARTESIAN_POINT ( 'NONE',  ( 76.79999999999999700, 0.0000000000000000000, 0.0000000000000000000 ) ) ;
#298 = DIRECTION ( 'NONE',  ( 1.000000000000000000, 0.0000000000000000000, 0.0000000000000000000 ) ) ;
#299 = DIRECTION ( 'NONE',  ( -0.0000000000000000000, -0.0000000000000000000, -1.000000000000000000 ) ) ;
#300 = DIRECTION ( 'NONE',  ( -1.000000000000000000, 0.0000000000000000000, 0.0000000000000000000 ) ) ;
#301 = APPROVAL_ROLE ( '' ) ;
#302 = DIRECTION ( 'NONE',  ( -0.0000000000000000000, -0.0000000000000000000, -1.000000000000000000 ) ) ;
#303 = APPROVAL_STATUS ( 'not_yet_approved' ) ;
#304 = CARTESIAN_POINT ( 'NONE',  ( 76.00000000000000000, 0.0000000000000000000, 0.0000000000000000000 ) ) ;
#305 = CARTESIAN_POINT ( 'NONE',  ( -76.00000000000000000, 0.8000000000000000400, 281.0000000000000000 ) ) ;
#306 = DATE_TIME_ROLE ( 'classification_date' ) ;
#307 = PERSON_AND_ORGANIZATION_ROLE ( 'classification_officer' ) ;
#308 = SECURITY_CLASSIFICATION_LEVEL ( 'unclassified' ) ;
#309 = DIRECTION ( 'NONE',  ( -1.000000000000000000, 0.0000000000000000000, 0.0000000000000000000 ) ) ;
#310 = CARTESIAN_POINT ( 'NONE',  ( 76.79999999999999700, -14.00000000000000000, 281.0000000000000000 ) ) ;
#311 = PERSON_AND_ORGANIZATION_ROLE ( 'design_supplier' ) ;
#312 = DIRECTION ( 'NONE',  ( -0.0000000000000000000, -0.0000000000000000000, -1.000000000000000000 ) ) ;
#313 = DIRECTION ( 'NONE',  ( -0.0000000000000000000, -0.0000000000000000000, -1.000000000000000000 ) ) ;
#314 = CARTESIAN_POINT ( 'NONE',  ( 76.79999999999999700, -14.00000000000000000, 281.0000000000000000 ) ) ;
#315 = CARTESIAN_POINT ( 'NONE',  ( 76.00000000000000000, -14.00000000000000000, 281.0000000000000000 ) ) ;
#316 = PERSON_AND_ORGANIZATION_ROLE ( 'creator' ) ;
#317 = DIRECTION ( 'NONE',  ( -0.0000000000000000000, -0.0000000000000000000, -1.000000000000000000 ) ) ;
#318 = APPROVAL_ROLE ( '' ) ;
#319 = DIRECTION ( 'NONE',  ( 1.000000000000000000, 0.0000000000000000000, 0.0000000000000000000 ) ) ;
#320 = DIRECTION ( 'NONE',  ( -1.000000000000000000, 0.0000000000000000000, 0.0000000000000000000 ) ) ;
#321 = CARTESIAN_POINT ( 'NONE',  ( 76.79999999999999700, -14.00000000000000000, 0.0000000000000000000 ) ) ;
#322 = DIRECTION ( 'NONE',  ( 0.0000000000000000000, 0.0000000000000000000, 1.000000000000000000 ) ) ;
#323 = APPROVAL_STATUS ( 'not_yet_approved' ) ;
#324 = DATE_TIME_ROLE ( 'creation_date' ) ;
#325 = PERSON_AND_ORGANIZATION_ROLE ( 'creator' ) ;
#326 = CARTESIAN_POINT ( 'NONE',  ( -76.00000000000000000, -14.00000000000000000, 281.0000000000000000 ) ) ;
#327 = DIRECTION ( 'NONE',  ( 1.000000000000000000, 0.0000000000000000000, 0.0000000000000000000 ) ) ;
#328 = APPROVAL_ROLE ( '' ) ;
#329 = CARTESIAN_POINT ( 'NONE',  ( -76.00000000000000000, -14.00000000000000000, 281.0000000000000000 ) ) ;
#330 = APPROVAL_STATUS ( 'not_yet_approved' ) ;
#331 = APPLICATION_PROTOCOL_DEFINITION ( 'international standard', 'config_control_design', 1994, #332 ) ;
#332 = APPLICATION_CONTEXT ( 'configuration controlled 3d designs of mechanical parts and assemblies' ) ;
#333 = PERSON_AND_ORGANIZATION_ROLE ( 'design_owner' ) ;
#334 = CARTESIAN_POINT ( 'NONE',  ( 1.734723475976807100E-015, 0.8000000000000000400, 14.99999999999999300 ) ) ;
#335 = DIRECTION ( 'NONE',  ( 1.000000000000000000, 0.0000000000000000000, 0.0000000000000000000 ) ) ;
#336 = DIRECTION ( 'NONE',  ( 0.0000000000000000000, 0.0000000000000000000, 1.000000000000000000 ) ) ;
#337 = DIRECTION ( 'NONE',  ( -0.0000000000000000000, -1.000000000000000000, -0.0000000000000000000 ) ) ;
#338 = MECHANICAL_CONTEXT ( 'NONE', #346, 'mechanical' ) ;
#339 = DIRECTION ( 'NONE',  ( 0.0000000000000000000, 0.0000000000000000000, -1.000000000000000000 ) ) ;
#340 = CARTESIAN_POINT ( 'NONE',  ( 1.734723475976807100E-015, 0.0000000000000000000, 14.99999999999999300 ) ) ;
#341 = DIRECTION ( 'NONE',  ( -0.0000000000000000000, 1.000000000000000000, -0.0000000000000000000 ) ) ;
#342 = DIRECTION ( 'NONE',  ( 0.0000000000000000000, 0.0000000000000000000, 1.000000000000000000 ) ) ;
#343 = DIRECTION ( 'NONE',  ( -0.0000000000000000000, -1.000000000000000000, -0.0000000000000000000 ) ) ;
#344 = CARTESIAN_POINT ( 'NONE',  ( 0.0000000000000000000, 0.0000000000000000000, 266.0000000000000600 ) ) ;
#345 = DIRECTION ( 'NONE',  ( 1.000000000000000000, 0.0000000000000000000, 0.0000000000000000000 ) ) ;
#346 = APPLICATION_CONTEXT ( 'configuration controlled 3d designs of mechanical parts and assemblies' ) ;
#347 = CARTESIAN_POINT ( 'NONE',  ( 76.00000000000000000, 0.0000000000000000000, 281.0000000000000000 ) ) ;
#348 = APPLICATION_PROTOCOL_DEFINITION ( 'international standard', 'config_control_design', 1994, #346 ) ;
#349 =( NAMED_UNIT ( * ) SI_UNIT ( $, .STERADIAN. ) SOLID_ANGLE_UNIT ( ) );
#350 = DIRECTION ( 'NONE',  ( 0.0000000000000000000, 1.000000000000000000, 0.0000000000000000000 ) ) ;
#351 = CARTESIAN_POINT ( 'NONE',  ( 1.734723475976807100E-015, 0.0000000000000000000, 17.49999999999999600 ) ) ;
#352 =( NAMED_UNIT ( * ) PLANE_ANGLE_UNIT ( ) SI_UNIT ( $, .RADIAN. ) );
#353 =( LENGTH_UNIT ( ) NAMED_UNIT ( * ) SI_UNIT ( .MILLI., .METRE. ) );
#354 = CARTESIAN_POINT ( 'NONE',  ( 0.0000000000000000000, 0.8000000000000000400, 266.0000000000000600 ) ) ;
#355 = CARTESIAN_POINT ( 'NONE',  ( -76.79999999999999700, 0.8000000000000000400, 281.0000000000000000 ) ) ;
#356 = DIRECTION ( 'NONE',  ( 0.0000000000000000000, 0.0000000000000000000, 1.000000000000000000 ) ) ;
#357 = CARTESIAN_POINT ( 'NONE',  ( -76.00000000000000000, 0.0000000000000000000, 281.0000000000000000 ) ) ;
#358 = DIRECTION ( 'NONE',  ( -0.0000000000000000000, 1.000000000000000000, -0.0000000000000000000 ) ) ;
#359 = CARTESIAN_POINT ( 'NONE',  ( -76.00000000000000000, 0.0000000000000000000, 0.0000000000000000000 ) ) ;
#360 = CARTESIAN_POINT ( 'NONE',  ( 1.734723475976807100E-015, 0.8000000000000000400, 17.49999999999999600 ) ) ;
#361 = DIRECTION ( 'NONE',  ( -0.0000000000000000000, -0.0000000000000000000, -1.000000000000000000 ) ) ;
#362 = CARTESIAN_POINT ( 'NONE',  ( 0.0000000000000000000, 0.8000000000000000400, 263.5000000000000600 ) ) ;
#363 = CARTESIAN_POINT ( 'NONE',  ( 0.0000000000000000000, 0.0000000000000000000, 0.0000000000000000000 ) ) ;
#364 = DIRECTION ( 'NONE',  ( -1.000000000000000000, 0.0000000000000000000, 0.0000000000000000000 ) ) ;
#365 = CARTESIAN_POINT ( 'NONE',  ( 0.0000000000000000000, 0.0000000000000000000, 268.5000000000000600 ) ) ;
#366 = DIRECTION ( 'NONE',  ( 0.0000000000000000000, -1.000000000000000000, 0.0000000000000000000 ) ) ;
#367 = CARTESIAN_POINT ( 'NONE',  ( 76.00000000000000000, 0.0000000000000000000, 281.0000000000000000 ) ) ;
#368 = CARTESIAN_POINT ( 'NONE',  ( -76.00000000000000000, 0.0000000000000000000, 281.0000000000000000 ) ) ;
#369 = CARTESIAN_POINT ( 'NONE',  ( -76.00000000000000000, -14.00000000000000000, 0.0000000000000000000 ) ) ;
#370 = DIRECTION ( 'NONE',  ( 0.0000000000000000000, 1.000000000000000000, 0.0000000000000000000 ) ) ;
#371 = CARTESIAN_POINT ( 'NONE',  ( -76.00000000000000000, 0.0000000000000000000, 281.0000000000000000 ) ) ;
#372 = CARTESIAN_POINT ( 'NONE',  ( -76.00000000000000000, 0.0000000000000000000, 0.0000000000000000000 ) ) ;
#373 = DIRECTION ( 'NONE',  ( 0.0000000000000000000, -0.0000000000000000000, -1.000000000000000000 ) ) ;
#374 = CARTESIAN_POINT ( 'NONE',  ( -76.79999999999999700, 0.0000000000000000000, 281.0000000000000000 ) ) ;
#375 = DIRECTION ( 'NONE',  ( 0.0000000000000000000, -1.000000000000000000, 0.0000000000000000000 ) ) ;
#376 = PLANE ( 'NONE',  #226 ) ;
#377 = DIRECTION ( 'NONE',  ( -1.000000000000000000, 0.0000000000000000000, 0.0000000000000000000 ) ) ;
#378 = DIRECTION ( 'NONE',  ( -0.0000000000000000000, 0.0000000000000000000, -1.000000000000000000 ) ) ;
#379 = DIRECTION ( 'NONE',  ( -0.0000000000000000000, 1.000000000000000000, -0.0000000000000000000 ) ) ;
#380 = PLANE ( 'NONE',  #228 ) ;
#381 = DIRECTION ( 'NONE',  ( -1.000000000000000000, 0.0000000000000000000, 0.0000000000000000000 ) ) ;
#382 = DIRECTION ( 'NONE',  ( -0.0000000000000000000, 0.0000000000000000000, -1.000000000000000000 ) ) ;
#383 = CARTESIAN_POINT ( 'NONE',  ( 76.79999999999999700, -14.00000000000000000, 281.0000000000000000 ) ) ;
#384 = PLANE ( 'NONE',  #229 ) ;
#385 = DIRECTION ( 'NONE',  ( 0.0000000000000000000, -0.0000000000000000000, 1.000000000000000000 ) ) ;
#386 = CARTESIAN_POINT ( 'NONE',  ( 0.0000000000000000000, 0.0000000000000000000, 0.0000000000000000000 ) ) ;
#387 = PLANE ( 'NONE',  #237 ) ;
#388 = CARTESIAN_POINT ( 'NONE',  ( 0.0000000000000000000, 0.0000000000000000000, 281.0000000000000000 ) ) ;
#389 = CARTESIAN_POINT ( 'NONE',  ( -76.00000000000000000, 0.0000000000000000000, 281.0000000000000000 ) ) ;
#390 = DIRECTION ( 'NONE',  ( 0.0000000000000000000, 0.0000000000000000000, 1.000000000000000000 ) ) ;
#391 = DIRECTION ( 'NONE',  ( -1.000000000000000000, 0.0000000000000000000, 0.0000000000000000000 ) ) ;
#392 = DIRECTION ( 'NONE',  ( 0.0000000000000000000, 1.000000000000000000, 0.0000000000000000000 ) ) ;
#393 = PLANE ( 'NONE',  #238 ) ;
#394 = CARTESIAN_POINT ( 'NONE',  ( -76.79999999999999700, 0.0000000000000000000, 281.0000000000000000 ) ) ;
#395 = CARTESIAN_POINT ( 'NONE',  ( 0.0000000000000000000, -14.00099999999999900, 266.0000000000000600 ) ) ;
#396 = DIRECTION ( 'NONE',  ( 0.0000000000000000000, -0.0000000000000000000, -1.000000000000000000 ) ) ;
#397 = DIRECTION ( 'NONE',  ( 0.0000000000000000000, -1.000000000000000000, 0.0000000000000000000 ) ) ;
#398 = DIRECTION ( 'NONE',  ( -0.0000000000000000000, 1.000000000000000000, -0.0000000000000000000 ) ) ;
#399 = PLANE ( 'NONE',  #240 ) ;
#400 = DIRECTION ( 'NONE',  ( 0.0000000000000000000, -0.0000000000000000000, 1.000000000000000000 ) ) ;
#401 = CARTESIAN_POINT ( 'NONE',  ( -76.00000000000000000, -14.00000000000000000, 281.0000000000000000 ) ) ;
#402 = PLANE ( 'NONE',  #241 ) ;
#403 = DIRECTION ( 'NONE',  ( 0.0000000000000000000, 0.0000000000000000000, 1.000000000000000000 ) ) ;
#404 = CARTESIAN_POINT ( 'NONE',  ( -76.00000000000000000, 0.8000000000000000400, 281.0000000000000000 ) ) ;
#405 = DIRECTION ( 'NONE',  ( -0.0000000000000000000, 0.0000000000000000000, -1.000000000000000000 ) ) ;
#406 = DIRECTION ( 'NONE',  ( 1.000000000000000000, 0.0000000000000000000, -0.0000000000000000000 ) ) ;
#407 = PLANE ( 'NONE',  #242 ) ;
#408 = DIRECTION ( 'NONE',  ( 0.0000000000000000000, 0.0000000000000000000, 1.000000000000000000 ) ) ;
#409 = DIRECTION ( 'NONE',  ( -1.000000000000000000, 0.0000000000000000000, 0.0000000000000000000 ) ) ;
#410 = DIRECTION ( 'NONE',  ( 0.0000000000000000000, 1.000000000000000000, 0.0000000000000000000 ) ) ;
#411 = PLANE ( 'NONE',  #243 ) ;
#412 = DIRECTION ( 'NONE',  ( -0.0000000000000000000, 0.0000000000000000000, -1.000000000000000000 ) ) ;
#413 = DIRECTION ( 'NONE',  ( 1.000000000000000000, 0.0000000000000000000, -0.0000000000000000000 ) ) ;
#414 = CARTESIAN_POINT ( 'NONE',  ( 76.00000000000000000, 0.0000000000000000000, 281.0000000000000000 ) ) ;
#415 = CARTESIAN_POINT ( 'NONE',  ( -76.00000000000000000, 0.0000000000000000000, 281.0000000000000000 ) ) ;
#416 = PLANE ( 'NONE',  #244 ) ;
#417 = DIRECTION ( 'NONE',  ( 0.0000000000000000000, 0.0000000000000000000, 1.000000000000000000 ) ) ;
#418 = CARTESIAN_POINT ( 'NONE',  ( 76.79999999999999700, 0.0000000000000000000, 281.0000000000000000 ) ) ;
#419 = DIRECTION ( 'NONE',  ( -0.0000000000000000000, 1.000000000000000000, -0.0000000000000000000 ) ) ;
#420 = CARTESIAN_POINT ( 'NONE',  ( 1.734723475976807100E-015, -14.00099999999999900, 14.99999999999999300 ) ) ;
#421 = CARTESIAN_POINT ( 'NONE',  ( 76.79999999999999700, 0.8000000000000000400, 0.0000000000000000000 ) ) ;
#422 = CARTESIAN_POINT ( 'NONE',  ( 76.79999999999999700, 0.8000000000000000400, 281.0000000000000000 ) ) ;
#423 = CARTESIAN_POINT ( 'NONE',  ( -76.00000000000000000, -14.00000000000000000, 281.0000000000000000 ) ) ;
#424 = CARTESIAN_POINT ( 'NONE',  ( 76.00000000000000000, 0.0000000000000000000, 0.0000000000000000000 ) ) ;
#425 = CARTESIAN_POINT ( 'NONE',  ( -76.79999999999999700, -14.00000000000000000, 281.0000000000000000 ) ) ;
#426 = CARTESIAN_POINT ( 'NONE',  ( -76.00000000000000000, -14.00000000000000000, 0.0000000000000000000 ) ) ;
#427 = CARTESIAN_POINT ( 'NONE',  ( -76.79999999999999700, 0.8000000000000000400, 281.0000000000000000 ) ) ;
#428 = CARTESIAN_POINT ( 'NONE',  ( -76.00000000000000000, 0.0000000000000000000, 0.0000000000000000000 ) ) ;
#429 = CARTESIAN_POINT ( 'NONE',  ( 76.79999999999999700, -14.00000000000000000, 0.0000000000000000000 ) ) ;
#430 = CARTESIAN_POINT ( 'NONE',  ( 76.00000000000000000, -14.00000000000000000, 281.0000000000000000 ) ) ;
#431 = DIRECTION ( 'NONE',  ( -0.0000000000000000000, -0.0000000000000000000, -1.000000000000000000 ) ) ;
#432 = CARTESIAN_POINT ( 'NONE',  ( 76.00000000000000000, 0.0000000000000000000, 281.0000000000000000 ) ) ;
#433 = CARTESIAN_POINT ( 'NONE',  ( 76.79999999999999700, -14.00000000000000000, 281.0000000000000000 ) ) ;
#434 = CARTESIAN_POINT ( 'NONE',  ( -76.79999999999999700, -14.00000000000000000, 0.0000000000000000000 ) ) ;
#435 = CARTESIAN_POINT ( 'NONE',  ( -76.00000000000000000, 0.0000000000000000000, 281.0000000000000000 ) ) ;
#436 = CARTESIAN_POINT ( 'NONE',  ( -76.79999999999999700, 0.8000000000000000400, 0.0000000000000000000 ) ) ;
#437 = CARTESIAN_POINT ( 'NONE',  ( 76.00000000000000000, -14.00000000000000000, 0.0000000000000000000 ) ) ;
ENDSEC;
END-ISO-10303-21;
