ISO-10303-21;
HEADER;
FILE_DESCRIPTION (( 'STEP AP203' ),
    '1' );
FILE_NAME ('CLP1P-SC-4 Ñîåäèíèòåëü öåïåé 3 ìì.STEP',
    '2016-03-03T12:01:00',
    ( '' ),
    ( '' ),
    'SwSTEP 2.0',
    'SolidWorks 2014',
    '' );
FILE_SCHEMA (( 'CONFIG_CONTROL_DESIGN' ));
ENDSEC;

DATA;
#1 = CC_DESIGN_SECURITY_CLASSIFICATION ( #210, ( #212 ) ) ;
#2 = PERSON ( 'UNSPECIFIED', 'UNSPECIFIED', 'UNSPECIFIED', ('UNSPECIFIED'), ('UNSPECIFIED'), ('UNSPECIFIED') ) ;
#3 = EDGE_CURVE ( 'NONE', #194, #194, #68, .T. ) ;
#4 = ADVANCED_FACE ( 'NONE', ( #59 ), #8, .F. ) ;
#5 = VERTEX_POINT ( 'NONE', #148 ) ;
#6 = DATE_AND_TIME ( #98, #57 ) ;
#7 = FACE_OUTER_BOUND ( 'NONE', #234, .T. ) ;
#8 = PLANE ( 'NONE',  #140 ) ;
#9 = CARTESIAN_POINT ( 'NONE',  ( 12.25000000000000000, 4.336808689942017700E-016, 7.104528550901072600E-016 ) ) ;
#10 = DATE_TIME_ROLE ( 'classification_date' ) ;
#11 = DIRECTION ( 'NONE',  ( -1.000000000000000000, 0.0000000000000000000, -0.0000000000000000000 ) ) ;
#12 = APPROVAL_ROLE ( '' ) ;
#13 = SHAPE_DEFINITION_REPRESENTATION ( #191, #149 ) ;
#14 = DIRECTION ( 'NONE',  ( 1.000000000000000000, 0.0000000000000000000, 0.0000000000000000000 ) ) ;
#15 = AXIS2_PLACEMENT_3D ( 'NONE', #81, #102, #17 ) ;
#16 = APPROVAL_STATUS ( 'not_yet_approved' ) ;
#17 = DIRECTION ( 'NONE',  ( 4.014138635983352400E-017, 6.952692066148490800E-017, -1.000000000000000000 ) ) ;
#18 = APPROVAL_ROLE ( '' ) ;
#19 = DIRECTION ( 'NONE',  ( 0.0000000000000000000, 0.0000000000000000000, 1.000000000000000000 ) ) ;
#20 = CIRCLE ( 'NONE', #63, 2.000000000000001800 ) ;
#21 = COORDINATED_UNIVERSAL_TIME_OFFSET ( 3, 0, .AHEAD. ) ;
#22 = ORIENTED_EDGE ( 'NONE', *, *, #168, .F. ) ;
#23 = ADVANCED_FACE ( 'NONE', ( #184 ), #106, .F. ) ;
#24 = FACE_OUTER_BOUND ( 'NONE', #101, .T. ) ;
#25 = ORGANIZATION ( 'UNSPECIFIED', 'UNSPECIFIED', '' ) ;
#26 = EDGE_LOOP ( 'NONE', ( #48 ) ) ;
#27 = EDGE_CURVE ( 'NONE', #133, #133, #20, .T. ) ;
#28 = DATE_AND_TIME ( #58, #108 ) ;
#29 = ORIENTED_EDGE ( 'NONE', *, *, #73, .T. ) ;
#30 = CARTESIAN_POINT ( 'NONE',  ( -6.000000000000000000, 0.0000000000000000000, -8.250000000000001800 ) ) ;
#31 = FACE_OUTER_BOUND ( 'NONE', #215, .T. ) ;
#32 = EDGE_CURVE ( 'NONE', #201, #201, #76, .T. ) ;
#33 = CC_DESIGN_PERSON_AND_ORGANIZATION_ASSIGNMENT ( #90, #153, ( #212 ) ) ;
#34 = APPROVAL_DATE_TIME ( #40, #233 ) ;
#35 = CARTESIAN_POINT ( 'NONE',  ( -6.000000000000000000, 0.0000000000000000000, 0.0000000000000000000 ) ) ;
#36 = APPLICATION_CONTEXT ( 'configuration controlled 3d designs of mechanical parts and assemblies' ) ;
#37 = ORIENTED_EDGE ( 'NONE', *, *, #3, .F. ) ;
#38 = DIRECTION ( 'NONE',  ( -0.0000000000000000000, 0.0000000000000000000, 1.000000000000000000 ) ) ;
#39 = CYLINDRICAL_SURFACE ( 'NONE', #121, 2.000000000000002700 ) ;
#40 = DATE_AND_TIME ( #208, #72 ) ;
#41 = TOROIDAL_SURFACE ( 'NONE', #15, 6.249999999999999100, 2.000000000000002200 ) ;
#42 = ADVANCED_FACE ( 'NONE', ( #144, #24 ), #41, .T. ) ;
#43 = CC_DESIGN_PERSON_AND_ORGANIZATION_ASSIGNMENT ( #220, #105, ( #190 ) ) ;
#44 = AXIS2_PLACEMENT_3D ( 'NONE', #217, #47, #71 ) ;
#45 = FACE_OUTER_BOUND ( 'NONE', #80, .T. ) ;
#46 = MECHANICAL_CONTEXT ( 'NONE', #36, 'mechanical' ) ;
#47 = DIRECTION ( 'NONE',  ( -0.4999999999999948900, -0.8660254037844415900, -8.028277271966786100E-017 ) ) ;
#48 = ORIENTED_EDGE ( 'NONE', *, *, #95, .F. ) ;
#49 =( NAMED_UNIT ( * ) PLANE_ANGLE_UNIT ( ) SI_UNIT ( $, .RADIAN. ) );
#50 =( LENGTH_UNIT ( ) NAMED_UNIT ( * ) SI_UNIT ( .MILLI., .METRE. ) );
#51 = ORIENTED_EDGE ( 'NONE', *, *, #32, .F. ) ;
#52 = CARTESIAN_POINT ( 'NONE',  ( 6.837341226347241700, 3.124999999999970200, -6.250000000000000000 ) ) ;
#53 = CC_DESIGN_APPROVAL ( #233, ( #212 ) ) ;
#54 = APPROVAL_PERSON_ORGANIZATION ( #229, #233, #164 ) ;
#55 = DIRECTION ( 'NONE',  ( 0.0000000000000000000, 0.0000000000000000000, 1.000000000000000000 ) ) ;
#56 = DIRECTION ( 'NONE',  ( 0.0000000000000000000, 0.0000000000000000000, 1.000000000000000000 ) ) ;
#57 = LOCAL_TIME ( 15, 1, 0.0000000000000000000, #193 ) ;
#58 = CALENDAR_DATE ( 2016, 3, 3 ) ;
#59 = FACE_OUTER_BOUND ( 'NONE', #230, .T. ) ;
#60 =( GEOMETRIC_REPRESENTATION_CONTEXT ( 3 ) GLOBAL_UNCERTAINTY_ASSIGNED_CONTEXT ( ( #84 ) ) GLOBAL_UNIT_ASSIGNED_CONTEXT ( ( #50, #49, #134 ) ) REPRESENTATION_CONTEXT ( 'NONE', 'WORKASPACE' ) );
#61 = DIRECTION ( 'NONE',  ( -1.000000000000000000, 0.0000000000000000000, -1.224646799147353200E-016 ) ) ;
#62 = DESIGN_CONTEXT ( 'detailed design', #152, 'design' ) ;
#63 = AXIS2_PLACEMENT_3D ( 'NONE', #52, #118, #173 ) ;
#64 = AXIS2_PLACEMENT_3D ( 'NONE', #219, #11, #38 ) ;
#65 = AXIS2_PLACEMENT_3D ( 'NONE', #77, #207, #56 ) ;
#66 = CARTESIAN_POINT ( 'NONE',  ( 6.837341226347241700, 3.124999999999970700, -8.250000000000001800 ) ) ;
#67 = EDGE_LOOP ( 'NONE', ( #214 ) ) ;
#68 = CIRCLE ( 'NONE', #93, 2.000000000000002700 ) ;
#69 = CALENDAR_DATE ( 2016, 3, 3 ) ;
#70 = CARTESIAN_POINT ( 'NONE',  ( 0.0000000000000000000, 0.0000000000000000000, 0.0000000000000000000 ) ) ;
#71 = DIRECTION ( 'NONE',  ( -5.383298450383107700E-018, 9.581060969143598400E-017, -1.000000000000000000 ) ) ;
#72 = LOCAL_TIME ( 15, 1, 0.0000000000000000000, #132 ) ;
#73 = EDGE_CURVE ( 'NONE', #5, #5, #156, .T. ) ;
#74 = CARTESIAN_POINT ( 'NONE',  ( -2.554963619066067600, 10.85705080756879500, -1.081368791948306700E-015 ) ) ;
#75 = EDGE_LOOP ( 'NONE', ( #204 ) ) ;
#76 = CIRCLE ( 'NONE', #65, 2.000000000000002700 ) ;
#77 = CARTESIAN_POINT ( 'NONE',  ( -6.000000000000000900, 0.0000000000000000000, 6.249999999999999100 ) ) ;
#78 = DATE_AND_TIME ( #69, #183 ) ;
#79 = DIRECTION ( 'NONE',  ( 1.000000000000000000, 0.0000000000000000000, 0.0000000000000000000 ) ) ;
#80 = EDGE_LOOP ( 'NONE', ( #37 ) ) ;
#81 = CARTESIAN_POINT ( 'NONE',  ( -3.554963619066057800, 9.124999999999909400, -1.025093902890541900E-015 ) ) ;
#82 = FACE_OUTER_BOUND ( 'NONE', #125, .T. ) ;
#83 = PERSON_AND_ORGANIZATION ( #2, #25 ) ;
#84 = UNCERTAINTY_MEASURE_WITH_UNIT (LENGTH_MEASURE( 1.000000000000000100E-005 ), #50, 'distance_accuracy_value', 'NONE');
#85 = CARTESIAN_POINT ( 'NONE',  ( 5.999999999999999100, 0.0000000000000000000, 6.249999999999999100 ) ) ;
#86 = FACE_OUTER_BOUND ( 'NONE', #171, .T. ) ;
#87 = PERSON_AND_ORGANIZATION ( #2, #25 ) ;
#88 = CARTESIAN_POINT ( 'NONE',  ( -3.554963619066058700, 9.124999999999911200, -8.250000000000001800 ) ) ;
#89 = DIRECTION ( 'NONE',  ( -1.000000000000000000, 0.0000000000000000000, -1.605655454393374000E-016 ) ) ;
#90 = PERSON_AND_ORGANIZATION ( #2, #25 ) ;
#91 = AXIS2_PLACEMENT_3D ( 'NONE', #35, #122, #55 ) ;
#92 = ORIENTED_EDGE ( 'NONE', *, *, #27, .T. ) ;
#93 = AXIS2_PLACEMENT_3D ( 'NONE', #85, #61, #19 ) ;
#94 = AXIS2_PLACEMENT_3D ( 'NONE', #9, #170, #89 ) ;
#95 = EDGE_CURVE ( 'NONE', #146, #146, #130, .T. ) ;
#96 = CC_DESIGN_APPROVAL ( #147, ( #178 ) ) ;
#97 = CLOSED_SHELL ( 'NONE', ( #4, #42, #159, #182, #198, #114, #131, #23 ) ) ;
#98 = CALENDAR_DATE ( 2016, 3, 3 ) ;
#99 = TOROIDAL_SURFACE ( 'NONE', #44, 6.249999999999999100, 2.000000000000002200 ) ;
#100 = APPROVAL_STATUS ( 'not_yet_approved' ) ;
#101 = EDGE_LOOP ( 'NONE', ( #180 ) ) ;
#102 = DIRECTION ( 'NONE',  ( -0.4999999999999948900, -0.8660254037844415900, -8.028277271966786100E-017 ) ) ;
#103 = CC_DESIGN_DATE_AND_TIME_ASSIGNMENT ( #6, #10, ( #210 ) ) ;
#104 = CALENDAR_DATE ( 2016, 3, 3 ) ;
#105 = PERSON_AND_ORGANIZATION_ROLE ( 'design_owner' ) ;
#106 = PLANE ( 'NONE',  #64 ) ;
#107 = PERSON_AND_ORGANIZATION ( #2, #25 ) ;
#108 = LOCAL_TIME ( 15, 1, 0.0000000000000000000, #158 ) ;
#109 = CARTESIAN_POINT ( 'NONE',  ( 5.999999999999999100, 0.0000000000000000000, 8.250000000000001800 ) ) ;
#110 = AXIS2_PLACEMENT_3D ( 'NONE', #70, #162, #14 ) ;
#111 = APPROVAL_PERSON_ORGANIZATION ( #87, #147, #12 ) ;
#112 = APPROVAL_DATE_TIME ( #28, #218 ) ;
#113 = APPROVAL_PERSON_ORGANIZATION ( #155, #218, #18 ) ;
#114 = ADVANCED_FACE ( 'NONE', ( #120, #209 ), #39, .T. ) ;
#115 = ORIENTED_EDGE ( 'NONE', *, *, #27, .F. ) ;
#116 = VERTEX_POINT ( 'NONE', #189 ) ;
#117 = ORIENTED_EDGE ( 'NONE', *, *, #137, .F. ) ;
#118 = DIRECTION ( 'NONE',  ( -0.8660254037844415900, 0.4999999999999950000, 7.468314276420804400E-017 ) ) ;
#119 = APPLICATION_PROTOCOL_DEFINITION ( 'international standard', 'config_control_design', 1994, #152 ) ;
#120 = FACE_OUTER_BOUND ( 'NONE', #145, .T. ) ;
#121 = AXIS2_PLACEMENT_3D ( 'NONE', #165, #232, #225 ) ;
#122 = DIRECTION ( 'NONE',  ( 0.0000000000000000000, 1.000000000000000000, 0.0000000000000000000 ) ) ;
#123 = APPLICATION_PROTOCOL_DEFINITION ( 'international standard', 'config_control_design', 1994, #36 ) ;
#124 = CARTESIAN_POINT ( 'NONE',  ( -6.000000000000000900, 0.0000000000000000000, 8.250000000000001800 ) ) ;
#125 = EDGE_LOOP ( 'NONE', ( #115 ) ) ;
#126 = FACE_OUTER_BOUND ( 'NONE', #196, .T. ) ;
#127 = APPROVAL_DATE_TIME ( #211, #147 ) ;
#128 = CARTESIAN_POINT ( 'NONE',  ( -3.554963619066057800, 9.124999999999909400, 6.249999999999998200 ) ) ;
#129 = ORIENTED_EDGE ( 'NONE', *, *, #32, .T. ) ;
#130 = CIRCLE ( 'NONE', #200, 2.000000000000001800 ) ;
#131 = ADVANCED_FACE ( 'NONE', ( #86, #7 ), #226, .T. ) ;
#132 = COORDINATED_UNIVERSAL_TIME_OFFSET ( 3, 0, .AHEAD. ) ;
#133 = VERTEX_POINT ( 'NONE', #66 ) ;
#134 =( NAMED_UNIT ( * ) SI_UNIT ( $, .STERADIAN. ) SOLID_ANGLE_UNIT ( ) );
#135 = DATE_TIME_ROLE ( 'creation_date' ) ;
#136 = COORDINATED_UNIVERSAL_TIME_OFFSET ( 3, 0, .AHEAD. ) ;
#137 = EDGE_CURVE ( 'NONE', #163, #163, #235, .T. ) ;
#138 = PERSON_AND_ORGANIZATION_ROLE ( 'creator' ) ;
#139 = CARTESIAN_POINT ( 'NONE',  ( -3.554963619066058700, 9.124999999999911200, -6.250000000000000000 ) ) ;
#140 = AXIS2_PLACEMENT_3D ( 'NONE', #74, #203, #195 ) ;
#141 = FACE_OUTER_BOUND ( 'NONE', #26, .T. ) ;
#142 = CARTESIAN_POINT ( 'NONE',  ( -3.554963619066058700, 9.124999999999911200, -6.250000000000000000 ) ) ;
#143 = DIRECTION ( 'NONE',  ( 0.8660254037844415900, -0.4999999999999950000, 4.778153715052727000E-017 ) ) ;
#144 = FACE_OUTER_BOUND ( 'NONE', #221, .T. ) ;
#145 = EDGE_LOOP ( 'NONE', ( #51 ) ) ;
#146 = VERTEX_POINT ( 'NONE', #88 ) ;
#147 = APPROVAL ( #151, 'UNSPECIFIED' ) ;
#148 = CARTESIAN_POINT ( 'NONE',  ( -3.554963619066057800, 9.124999999999909400, 8.250000000000000000 ) ) ;
#149 = ADVANCED_BREP_SHAPE_REPRESENTATION ( 'CLP1P-SC-4 Tþõôøýøªõû¹ ¡õÿõù 3 üü', ( #228, #110 ), #60 ) ;
#150 = CARTESIAN_POINT ( 'NONE',  ( 6.000000000000000000, 0.0000000000000000000, 0.0000000000000000000 ) ) ;
#151 = APPROVAL_STATUS ( 'not_yet_approved' ) ;
#152 = APPLICATION_CONTEXT ( 'configuration controlled 3d designs of mechanical parts and assemblies' ) ;
#153 = PERSON_AND_ORGANIZATION_ROLE ( 'creator' ) ;
#154 = AXIS2_PLACEMENT_3D ( 'NONE', #150, #192, #161 ) ;
#155 = PERSON_AND_ORGANIZATION ( #2, #25 ) ;
#156 = CIRCLE ( 'NONE', #224, 2.000000000000001800 ) ;
#157 = AXIS2_PLACEMENT_3D ( 'NONE', #169, #79, #227 ) ;
#158 = COORDINATED_UNIVERSAL_TIME_OFFSET ( 3, 0, .AHEAD. ) ;
#159 = ADVANCED_FACE ( 'NONE', ( #141, #126 ), #216, .T. ) ;
#160 = PERSON_AND_ORGANIZATION ( #2, #25 ) ;
#161 = DIRECTION ( 'NONE',  ( 0.0000000000000000000, 0.0000000000000000000, 1.000000000000000000 ) ) ;
#162 = DIRECTION ( 'NONE',  ( 0.0000000000000000000, 0.0000000000000000000, 1.000000000000000000 ) ) ;
#163 = VERTEX_POINT ( 'NONE', #30 ) ;
#164 = APPROVAL_ROLE ( '' ) ;
#165 = CARTESIAN_POINT ( 'NONE',  ( -6.000000000000000900, 0.0000000000000000000, 6.249999999999999100 ) ) ;
#166 = EDGE_LOOP ( 'NONE', ( #22 ) ) ;
#167 = AXIS2_PLACEMENT_3D ( 'NONE', #142, #143, #185 ) ;
#168 = EDGE_CURVE ( 'NONE', #116, #116, #205, .T. ) ;
#169 = CARTESIAN_POINT ( 'NONE',  ( -6.000000000000000000, 0.0000000000000000000, -6.249999999999999100 ) ) ;
#170 = DIRECTION ( 'NONE',  ( 1.605655454393373700E-016, 0.0000000000000000000, -1.000000000000000000 ) ) ;
#171 = EDGE_LOOP ( 'NONE', ( #117 ) ) ;
#172 = TOROIDAL_SURFACE ( 'NONE', #154, 6.249999999999999100, 2.000000000000002200 ) ;
#173 = DIRECTION ( 'NONE',  ( 0.0000000000000000000, 2.168404344971006900E-016, -1.000000000000000000 ) ) ;
#174 = LOCAL_TIME ( 15, 1, 0.0000000000000000000, #21 ) ;
#175 = DIRECTION ( 'NONE',  ( 0.8660254037844415900, -0.4999999999999950000, 4.778153715052727000E-017 ) ) ;
#176 = CC_DESIGN_APPROVAL ( #218, ( #210 ) ) ;
#177 = CC_DESIGN_PERSON_AND_ORGANIZATION_ASSIGNMENT ( #107, #186, ( #210 ) ) ;
#178 = PRODUCT_DEFINITION ( 'UNKNOWN', '', #212, #62 ) ;
#179 = DIRECTION ( 'NONE',  ( 0.0000000000000000000, 0.0000000000000000000, 1.000000000000000000 ) ) ;
#180 = ORIENTED_EDGE ( 'NONE', *, *, #95, .T. ) ;
#181 = FACE_OUTER_BOUND ( 'NONE', #166, .T. ) ;
#182 = ADVANCED_FACE ( 'NONE', ( #31, #82 ), #99, .T. ) ;
#183 = LOCAL_TIME ( 15, 1, 0.0000000000000000000, #136 ) ;
#184 = FACE_OUTER_BOUND ( 'NONE', #75, .T. ) ;
#185 = DIRECTION ( 'NONE',  ( 0.0000000000000000000, 0.0000000000000000000, 1.000000000000000000 ) ) ;
#186 = PERSON_AND_ORGANIZATION_ROLE ( 'classification_officer' ) ;
#187 = PERSON_AND_ORGANIZATION_ROLE ( 'design_supplier' ) ;
#188 = ORIENTED_EDGE ( 'NONE', *, *, #168, .T. ) ;
#189 = CARTESIAN_POINT ( 'NONE',  ( 10.24999999999999800, 4.336808689942017700E-016, 3.893217642114321200E-016 ) ) ;
#190 = PRODUCT ( 'CLP1P-SC-4 Ñîåäèíèòåëü öåïåé 3 ìì', 'CLP1P-SC-4 Ñîåäèíèòåëü öåïåé 3 ìì', '', ( #46 ) ) ;
#191 = PRODUCT_DEFINITION_SHAPE ( 'NONE', 'NONE',  #178 ) ;
#192 = DIRECTION ( 'NONE',  ( 0.0000000000000000000, 1.000000000000000000, 0.0000000000000000000 ) ) ;
#193 = COORDINATED_UNIVERSAL_TIME_OFFSET ( 3, 0, .AHEAD. ) ;
#194 = VERTEX_POINT ( 'NONE', #109 ) ;
#195 = DIRECTION ( 'NONE',  ( 7.098638745679044500E-018, 8.855563797305247200E-017, -1.000000000000000000 ) ) ;
#196 = EDGE_LOOP ( 'NONE', ( #92 ) ) ;
#197 = DIRECTION ( 'NONE',  ( -0.8660254037844415900, 0.4999999999999950000, 7.468314276420804400E-017 ) ) ;
#198 = ADVANCED_FACE ( 'NONE', ( #181, #45 ), #172, .T. ) ;
#199 = ORIENTED_EDGE ( 'NONE', *, *, #73, .F. ) ;
#200 = AXIS2_PLACEMENT_3D ( 'NONE', #139, #197, #223 ) ;
#201 = VERTEX_POINT ( 'NONE', #124 ) ;
#202 = SECURITY_CLASSIFICATION_LEVEL ( 'unclassified' ) ;
#203 = DIRECTION ( 'NONE',  ( -0.8660254037844415900, 0.4999999999999950000, 3.813021750047921500E-017 ) ) ;
#204 = ORIENTED_EDGE ( 'NONE', *, *, #137, .T. ) ;
#205 = CIRCLE ( 'NONE', #94, 2.000000000000001800 ) ;
#206 = PRODUCT_RELATED_PRODUCT_CATEGORY ( 'detail', '', ( #190 ) ) ;
#207 = DIRECTION ( 'NONE',  ( -1.000000000000000000, 0.0000000000000000000, -1.224646799147353200E-016 ) ) ;
#208 = CALENDAR_DATE ( 2016, 3, 3 ) ;
#209 = FACE_OUTER_BOUND ( 'NONE', #67, .T. ) ;
#210 = SECURITY_CLASSIFICATION ( '', '', #202 ) ;
#211 = DATE_AND_TIME ( #104, #174 ) ;
#212 = PRODUCT_DEFINITION_FORMATION_WITH_SPECIFIED_SOURCE ( 'ANY', '', #190, .NOT_KNOWN. ) ;
#213 = CC_DESIGN_PERSON_AND_ORGANIZATION_ASSIGNMENT ( #83, #138, ( #178 ) ) ;
#214 = ORIENTED_EDGE ( 'NONE', *, *, #3, .T. ) ;
#215 = EDGE_LOOP ( 'NONE', ( #188 ) ) ;
#216 = CYLINDRICAL_SURFACE ( 'NONE', #167, 2.000000000000001800 ) ;
#217 = CARTESIAN_POINT ( 'NONE',  ( 6.837341226347241700, 3.124999999999969400, -4.517154570842144900E-016 ) ) ;
#218 = APPROVAL ( #16, 'UNSPECIFIED' ) ;
#219 = CARTESIAN_POINT ( 'NONE',  ( -6.000000000000000000, -2.000000000000002200, 2.168404344971008900E-016 ) ) ;
#220 = PERSON_AND_ORGANIZATION ( #2, #25 ) ;
#221 = EDGE_LOOP ( 'NONE', ( #199 ) ) ;
#222 = CC_DESIGN_DATE_AND_TIME_ASSIGNMENT ( #78, #135, ( #178 ) ) ;
#223 = DIRECTION ( 'NONE',  ( 0.0000000000000000000, 0.0000000000000000000, -1.000000000000000000 ) ) ;
#224 = AXIS2_PLACEMENT_3D ( 'NONE', #128, #175, #179 ) ;
#225 = DIRECTION ( 'NONE',  ( 0.0000000000000000000, 0.0000000000000000000, -1.000000000000000000 ) ) ;
#226 = TOROIDAL_SURFACE ( 'NONE', #91, 6.249999999999999100, 2.000000000000002200 ) ;
#227 = DIRECTION ( 'NONE',  ( 0.0000000000000000000, 0.0000000000000000000, -1.000000000000000000 ) ) ;
#228 = MANIFOLD_SOLID_BREP ( 'Ïåðåñå÷åíèå1', #97 ) ;
#229 = PERSON_AND_ORGANIZATION ( #2, #25 ) ;
#230 = EDGE_LOOP ( 'NONE', ( #29 ) ) ;
#231 = CC_DESIGN_PERSON_AND_ORGANIZATION_ASSIGNMENT ( #160, #187, ( #212 ) ) ;
#232 = DIRECTION ( 'NONE',  ( 1.000000000000000000, 0.0000000000000000000, 0.0000000000000000000 ) ) ;
#233 = APPROVAL ( #100, 'UNSPECIFIED' ) ;
#234 = EDGE_LOOP ( 'NONE', ( #129 ) ) ;
#235 = CIRCLE ( 'NONE', #157, 2.000000000000002700 ) ;
ENDSEC;
END-ISO-10303-21;
