ISO-10303-21;
HEADER;
FILE_DESCRIPTION (( 'STEP AP203' ),
    '1' );
FILE_NAME ('Êðûøêà íà îòâåòâèòåëü Ò-îáðàçíûé âåðòèêàëüíûé TDSA_38384.STEP',
    '2012-11-09T08:44:19',
    ( 'Àñååâ' ),
    ( '' ),
    'SwSTEP 2.0',
    'SolidWorks 2012',
    '' );
FILE_SCHEMA (( 'CONFIG_CONTROL_DESIGN' ));
ENDSEC;

DATA;
#1 = CARTESIAN_POINT ( 'NONE',  ( -41.00000000000000000, 0.0000000000000000000, 560.0000000000000000 ) ) ;
#2 = CARTESIAN_POINT ( 'NONE',  ( 0.0000000000000000000, 0.0000000000000000000, 0.0000000000000000000 ) ) ;
#3 = CARTESIAN_POINT ( 'NONE',  ( -41.00000000000000000, 0.0000000000000000000, 560.0000000000000000 ) ) ;
#4 = CARTESIAN_POINT ( 'NONE',  ( -41.00000000000000000, -14.00000000000000000, 560.0000000000000000 ) ) ;
#5 = CARTESIAN_POINT ( 'NONE',  ( -41.60000000000000900, -14.00000000000000000, 560.0000000000000000 ) ) ;
#6 = CARTESIAN_POINT ( 'NONE',  ( -41.60000000000000900, 0.5999999999999999800, 560.0000000000000000 ) ) ;
#7 = CARTESIAN_POINT ( 'NONE',  ( -41.00000000000000000, -14.00000000000000000, 0.0000000000000000000 ) ) ;
#8 = CARTESIAN_POINT ( 'NONE',  ( 41.60000000000000900, 0.5999999999999999800, 560.0000000000000000 ) ) ;
#9 = CARTESIAN_POINT ( 'NONE',  ( -41.60000000000000900, 0.5999999999999999800, 0.0000000000000000000 ) ) ;
#10 = CARTESIAN_POINT ( 'NONE',  ( -41.60000000000000900, -14.00000000000000000, 0.0000000000000000000 ) ) ;
#11 = CARTESIAN_POINT ( 'NONE',  ( 41.60000000000000900, -14.00000000000000000, 560.0000000000000000 ) ) ;
#12 = CARTESIAN_POINT ( 'NONE',  ( 41.00000000000000000, 0.0000000000000000000, 560.0000000000000000 ) ) ;
#13 = CARTESIAN_POINT ( 'NONE',  ( -41.00000000000000000, 0.0000000000000000000, 0.0000000000000000000 ) ) ;
#14 = CARTESIAN_POINT ( 'NONE',  ( 41.00000000000000000, -14.00000000000000000, 560.0000000000000000 ) ) ;
#15 = CARTESIAN_POINT ( 'NONE',  ( 41.00000000000000000, 0.0000000000000000000, 0.0000000000000000000 ) ) ;
#16 = DIRECTION ( 'NONE',  ( -1.000000000000000000, 0.0000000000000000000, 0.0000000000000000000 ) ) ;
#17 = PLANE ( 'NONE',  #184 ) ;
#18 = CARTESIAN_POINT ( 'NONE',  ( 41.00000000000000000, -14.00000000000000000, 0.0000000000000000000 ) ) ;
#19 = CARTESIAN_POINT ( 'NONE',  ( -41.00000000000000000, -14.00000000000000000, 560.0000000000000000 ) ) ;
#20 = CARTESIAN_POINT ( 'NONE',  ( -41.00000000000000000, 0.0000000000000000000, 560.0000000000000000 ) ) ;
#21 = DIRECTION ( 'NONE',  ( -1.000000000000000000, 0.0000000000000000000, 0.0000000000000000000 ) ) ;
#22 = CARTESIAN_POINT ( 'NONE',  ( 41.60000000000000900, -14.00000000000000000, 0.0000000000000000000 ) ) ;
#23 = DIRECTION ( 'NONE',  ( -0.0000000000000000000, -1.000000000000000000, 0.0000000000000000000 ) ) ;
#24 = CARTESIAN_POINT ( 'NONE',  ( 41.60000000000000900, 0.0000000000000000000, 0.0000000000000000000 ) ) ;
#25 = DIRECTION ( 'NONE',  ( -0.0000000000000000000, 0.0000000000000000000, -1.000000000000000000 ) ) ;
#26 = DIRECTION ( 'NONE',  ( -0.0000000000000000000, -0.0000000000000000000, -1.000000000000000000 ) ) ;
#27 = DIRECTION ( 'NONE',  ( 0.0000000000000000000, -1.000000000000000000, 0.0000000000000000000 ) ) ;
#28 = CARTESIAN_POINT ( 'NONE',  ( 41.60000000000000900, -14.00000000000000000, 0.0000000000000000000 ) ) ;
#29 = CARTESIAN_POINT ( 'NONE',  ( 41.00000000000000000, 0.0000000000000000000, 0.0000000000000000000 ) ) ;
#30 = DIRECTION ( 'NONE',  ( 0.0000000000000000000, 1.000000000000000000, 0.0000000000000000000 ) ) ;
#31 = DIRECTION ( 'NONE',  ( 0.0000000000000000000, -1.000000000000000000, 0.0000000000000000000 ) ) ;
#32 = CARTESIAN_POINT ( 'NONE',  ( 41.00000000000000000, 0.0000000000000000000, 560.0000000000000000 ) ) ;
#33 = DIRECTION ( 'NONE',  ( -0.0000000000000000000, -0.0000000000000000000, -1.000000000000000000 ) ) ;
#34 = CARTESIAN_POINT ( 'NONE',  ( 41.60000000000000900, -14.00000000000000000, 560.0000000000000000 ) ) ;
#35 = PLANE ( 'NONE',  #154 ) ;
#36 = CARTESIAN_POINT ( 'NONE',  ( 0.0000000000000000000, 0.0000000000000000000, 0.0000000000000000000 ) ) ;
#37 = DIRECTION ( 'NONE',  ( -1.000000000000000000, 0.0000000000000000000, 0.0000000000000000000 ) ) ;
#38 = CARTESIAN_POINT ( 'NONE',  ( 41.60000000000000900, -14.00000000000000000, 560.0000000000000000 ) ) ;
#39 = DIRECTION ( 'NONE',  ( 1.000000000000000000, 0.0000000000000000000, 0.0000000000000000000 ) ) ;
#40 = CARTESIAN_POINT ( 'NONE',  ( 41.00000000000000000, 0.0000000000000000000, 560.0000000000000000 ) ) ;
#41 = CARTESIAN_POINT ( 'NONE',  ( -41.60000000000000900, 0.0000000000000000000, 560.0000000000000000 ) ) ;
#42 = CARTESIAN_POINT ( 'NONE',  ( 1.734723475976807100E-015, -14.00099999999999900, 14.99999999999999300 ) ) ;
#43 = DIRECTION ( 'NONE',  ( -1.000000000000000000, 0.0000000000000000000, 0.0000000000000000000 ) ) ;
#44 = DIRECTION ( 'NONE',  ( 1.000000000000000000, 0.0000000000000000000, 0.0000000000000000000 ) ) ;
#45 = DIRECTION ( 'NONE',  ( 0.0000000000000000000, 0.0000000000000000000, 1.000000000000000000 ) ) ;
#46 = DIRECTION ( 'NONE',  ( -0.0000000000000000000, -1.000000000000000000, -0.0000000000000000000 ) ) ;
#47 = CARTESIAN_POINT ( 'NONE',  ( 1.734723475976807100E-015, 0.0000000000000000000, 14.99999999999999300 ) ) ;
#48 = DIRECTION ( 'NONE',  ( -0.0000000000000000000, 0.0000000000000000000, -1.000000000000000000 ) ) ;
#49 = DIRECTION ( 'NONE',  ( -0.0000000000000000000, 1.000000000000000000, -0.0000000000000000000 ) ) ;
#50 = PLANE ( 'NONE',  #139 ) ;
#51 = DIRECTION ( 'NONE',  ( 0.0000000000000000000, 0.0000000000000000000, 1.000000000000000000 ) ) ;
#52 = DIRECTION ( 'NONE',  ( -0.0000000000000000000, -1.000000000000000000, -0.0000000000000000000 ) ) ;
#53 = CARTESIAN_POINT ( 'NONE',  ( 0.0000000000000000000, 0.0000000000000000000, 545.0000000000000000 ) ) ;
#54 = CARTESIAN_POINT ( 'NONE',  ( 41.60000000000000900, 0.5999999999999999800, 0.0000000000000000000 ) ) ;
#55 = CARTESIAN_POINT ( 'NONE',  ( -41.00000000000000000, 0.0000000000000000000, 560.0000000000000000 ) ) ;
#56 = CARTESIAN_POINT ( 'NONE',  ( -41.00000000000000000, 0.0000000000000000000, 0.0000000000000000000 ) ) ;
#57 = DIRECTION ( 'NONE',  ( 0.0000000000000000000, 0.0000000000000000000, 1.000000000000000000 ) ) ;
#58 = DIRECTION ( 'NONE',  ( -0.0000000000000000000, 1.000000000000000000, -0.0000000000000000000 ) ) ;
#59 = DIRECTION ( 'NONE',  ( -0.0000000000000000000, -0.0000000000000000000, -1.000000000000000000 ) ) ;
#60 = DIRECTION ( 'NONE',  ( -1.000000000000000000, 0.0000000000000000000, 0.0000000000000000000 ) ) ;
#61 = CARTESIAN_POINT ( 'NONE',  ( -41.00000000000000000, 0.0000000000000000000, 560.0000000000000000 ) ) ;
#62 = DIRECTION ( 'NONE',  ( 0.0000000000000000000, 0.0000000000000000000, 1.000000000000000000 ) ) ;
#63 = PLANE ( 'NONE',  #148 ) ;
#64 = DIRECTION ( 'NONE',  ( -0.0000000000000000000, 1.000000000000000000, -0.0000000000000000000 ) ) ;
#65 = CARTESIAN_POINT ( 'NONE',  ( -41.00000000000000000, 0.0000000000000000000, 0.0000000000000000000 ) ) ;
#66 = DIRECTION ( 'NONE',  ( 0.0000000000000000000, -0.0000000000000000000, 1.000000000000000000 ) ) ;
#67 = PLANE ( 'NONE',  #149 ) ;
#68 = CARTESIAN_POINT ( 'NONE',  ( 0.0000000000000000000, 0.0000000000000000000, 560.0000000000000000 ) ) ;
#69 = CARTESIAN_POINT ( 'NONE',  ( -41.00000000000000000, 0.5999999999999999800, 560.0000000000000000 ) ) ;
#70 = DIRECTION ( 'NONE',  ( 0.0000000000000000000, -0.0000000000000000000, -1.000000000000000000 ) ) ;
#71 = DIRECTION ( 'NONE',  ( -1.000000000000000000, 0.0000000000000000000, 0.0000000000000000000 ) ) ;
#72 = DIRECTION ( 'NONE',  ( -0.0000000000000000000, -0.0000000000000000000, -1.000000000000000000 ) ) ;
#73 = DIRECTION ( 'NONE',  ( 0.0000000000000000000, -1.000000000000000000, 0.0000000000000000000 ) ) ;
#74 = PLANE ( 'NONE',  #150 ) ;
#75 = CARTESIAN_POINT ( 'NONE',  ( -41.00000000000000000, -14.00000000000000000, 560.0000000000000000 ) ) ;
#76 = DIRECTION ( 'NONE',  ( -1.000000000000000000, 0.0000000000000000000, 0.0000000000000000000 ) ) ;
#77 = CARTESIAN_POINT ( 'NONE',  ( -41.00000000000000000, -14.00000000000000000, 0.0000000000000000000 ) ) ;
#78 = DIRECTION ( 'NONE',  ( 0.0000000000000000000, 1.000000000000000000, 0.0000000000000000000 ) ) ;
#79 = DIRECTION ( 'NONE',  ( -0.0000000000000000000, -0.0000000000000000000, -1.000000000000000000 ) ) ;
#80 = DIRECTION ( 'NONE',  ( -0.0000000000000000000, 0.0000000000000000000, -1.000000000000000000 ) ) ;
#81 = CARTESIAN_POINT ( 'NONE',  ( -41.00000000000000000, 0.0000000000000000000, 560.0000000000000000 ) ) ;
#82 = DIRECTION ( 'NONE',  ( 1.000000000000000000, 0.0000000000000000000, -0.0000000000000000000 ) ) ;
#83 = CARTESIAN_POINT ( 'NONE',  ( -41.60000000000000900, -14.00000000000000000, 560.0000000000000000 ) ) ;
#84 = DIRECTION ( 'NONE',  ( 0.0000000000000000000, 1.000000000000000000, 0.0000000000000000000 ) ) ;
#85 = CARTESIAN_POINT ( 'NONE',  ( -41.60000000000000900, 0.0000000000000000000, 0.0000000000000000000 ) ) ;
#86 = DIRECTION ( 'NONE',  ( 0.0000000000000000000, 1.000000000000000000, 0.0000000000000000000 ) ) ;
#87 = DIRECTION ( 'NONE',  ( 1.000000000000000000, 0.0000000000000000000, 0.0000000000000000000 ) ) ;
#88 = CARTESIAN_POINT ( 'NONE',  ( -41.00000000000000000, -14.00000000000000000, 560.0000000000000000 ) ) ;
#89 = PLANE ( 'NONE',  #151 ) ;
#90 = DIRECTION ( 'NONE',  ( -0.0000000000000000000, -0.0000000000000000000, -1.000000000000000000 ) ) ;
#91 = CARTESIAN_POINT ( 'NONE',  ( -41.60000000000000900, 0.0000000000000000000, 560.0000000000000000 ) ) ;
#92 = CARTESIAN_POINT ( 'NONE',  ( -41.00000000000000000, 0.5999999999999999800, 0.0000000000000000000 ) ) ;
#93 = DIRECTION ( 'NONE',  ( -0.0000000000000000000, 0.0000000000000000000, -1.000000000000000000 ) ) ;
#94 = DIRECTION ( 'NONE',  ( -0.0000000000000000000, -0.0000000000000000000, -1.000000000000000000 ) ) ;
#95 = DIRECTION ( 'NONE',  ( 0.0000000000000000000, 0.0000000000000000000, 1.000000000000000000 ) ) ;
#96 = DIRECTION ( 'NONE',  ( 0.0000000000000000000, 1.000000000000000000, 0.0000000000000000000 ) ) ;
#97 = CARTESIAN_POINT ( 'NONE',  ( 1.734723475976807100E-015, 0.5999999999999999800, 14.99999999999999300 ) ) ;
#98 = CARTESIAN_POINT ( 'NONE',  ( -41.00000000000000000, 0.5999999999999999800, 560.0000000000000000 ) ) ;
#99 = DIRECTION ( 'NONE',  ( 0.0000000000000000000, 0.0000000000000000000, -1.000000000000000000 ) ) ;
#100 = DIRECTION ( 'NONE',  ( -0.0000000000000000000, 1.000000000000000000, -0.0000000000000000000 ) ) ;
#101 = DIRECTION ( 'NONE',  ( 1.000000000000000000, 0.0000000000000000000, -0.0000000000000000000 ) ) ;
#102 = CARTESIAN_POINT ( 'NONE',  ( 0.0000000000000000000, 0.5999999999999999800, 545.0000000000000000 ) ) ;
#103 = DIRECTION ( 'NONE',  ( -0.0000000000000000000, 1.000000000000000000, -0.0000000000000000000 ) ) ;
#104 = CARTESIAN_POINT ( 'NONE',  ( -41.60000000000000900, 0.5999999999999999800, 560.0000000000000000 ) ) ;
#105 = DIRECTION ( 'NONE',  ( 1.000000000000000000, 0.0000000000000000000, 0.0000000000000000000 ) ) ;
#106 = CARTESIAN_POINT ( 'NONE',  ( 41.00000000000000000, -14.00000000000000000, 560.0000000000000000 ) ) ;
#107 = DIRECTION ( 'NONE',  ( -0.0000000000000000000, -0.0000000000000000000, -1.000000000000000000 ) ) ;
#108 = CARTESIAN_POINT ( 'NONE',  ( 41.60000000000000900, 0.5999999999999999800, 560.0000000000000000 ) ) ;
#109 = DIRECTION ( 'NONE',  ( 0.0000000000000000000, 0.0000000000000000000, 1.000000000000000000 ) ) ;
#110 = CARTESIAN_POINT ( 'NONE',  ( 41.60000000000000900, 0.0000000000000000000, 560.0000000000000000 ) ) ;
#111 = DIRECTION ( 'NONE',  ( 0.0000000000000000000, -0.0000000000000000000, -1.000000000000000000 ) ) ;
#112 = DIRECTION ( 'NONE',  ( 0.0000000000000000000, -1.000000000000000000, 0.0000000000000000000 ) ) ;
#113 = PLANE ( 'NONE',  #143 ) ;
#114 = DIRECTION ( 'NONE',  ( 0.0000000000000000000, 0.0000000000000000000, 1.000000000000000000 ) ) ;
#115 = DIRECTION ( 'NONE',  ( -1.000000000000000000, 0.0000000000000000000, 0.0000000000000000000 ) ) ;
#116 = DIRECTION ( 'NONE',  ( -0.0000000000000000000, -1.000000000000000000, 0.0000000000000000000 ) ) ;
#117 = CARTESIAN_POINT ( 'NONE',  ( 0.0000000000000000000, -14.00099999999999900, 545.0000000000000000 ) ) ;
#118 = CARTESIAN_POINT ( 'NONE',  ( 41.60000000000000900, 0.0000000000000000000, 560.0000000000000000 ) ) ;
#119 = PLANE ( 'NONE',  #158 ) ;
#120 = CARTESIAN_POINT ( 'NONE',  ( 41.60000000000000900, -14.00000000000000000, 560.0000000000000000 ) ) ;
#121 = PLANE ( 'NONE',  #152 ) ;
#122 = DIRECTION ( 'NONE',  ( 0.0000000000000000000, -0.0000000000000000000, 1.000000000000000000 ) ) ;
#123 = CARTESIAN_POINT ( 'NONE',  ( 41.00000000000000000, 0.0000000000000000000, 560.0000000000000000 ) ) ;
#124 = ADVANCED_FACE ( 'NONE', ( #390, #401 ), #302, .F. ) ;
#125 = ADVANCED_FACE ( 'NONE', ( #305 ), #121, .T. ) ;
#126 = ADVANCED_FACE ( 'NONE', ( #304 ), #89, .F. ) ;
#127 = ADVANCED_FACE ( 'NONE', ( #306 ), #74, .T. ) ;
#128 = ADVANCED_FACE ( 'NONE', ( #301, #298, #300 ), #67, .T. ) ;
#129 = ADVANCED_FACE ( 'NONE', ( #299 ), #63, .T. ) ;
#130 = ADVANCED_FACE ( 'NONE', ( #303 ), #50, .F. ) ;
#131 = ADVANCED_FACE ( 'NONE', ( #285, #281 ), #279, .F. ) ;
#132 = ADVANCED_FACE ( 'NONE', ( #287 ), #35, .T. ) ;
#133 = ADVANCED_FACE ( 'NONE', ( #283, #277, #282 ), #17, .F. ) ;
#134 = ADVANCED_FACE ( 'NONE', ( #278 ), #119, .F. ) ;
#135 = ADVANCED_FACE ( 'NONE', ( #280 ), #113, .T. ) ;
#136 = AXIS2_PLACEMENT_3D ( 'NONE', #47, #46, #45 ) ;
#137 = AXIS2_PLACEMENT_3D ( 'NONE', #42, #49, #62 ) ;
#138 = AXIS2_PLACEMENT_3D ( 'NONE', #2, #434, #427 ) ;
#139 = AXIS2_PLACEMENT_3D ( 'NONE', #68, #48, #43 ) ;
#140 =( GEOMETRIC_REPRESENTATION_CONTEXT ( 3 ) GLOBAL_UNCERTAINTY_ASSIGNED_CONTEXT ( ( #407 ) ) GLOBAL_UNIT_ASSIGNED_CONTEXT ( ( #432, #431, #430 ) ) REPRESENTATION_CONTEXT ( 'NONE', 'WORKASPACE' ) );
#141 = AXIS2_PLACEMENT_3D ( 'NONE', #53, #52, #51 ) ;
#142 = AXIS2_PLACEMENT_3D ( 'NONE', #97, #96, #95 ) ;
#143 = AXIS2_PLACEMENT_3D ( 'NONE', #19, #112, #111 ) ;
#144 = APPROVAL ( #422, 'UNSPECIFIED' ) ;
#145 = AXIS2_PLACEMENT_3D ( 'NONE', #102, #100, #99 ) ;
#146 = CC_DESIGN_PERSON_AND_ORGANIZATION_ASSIGNMENT ( #235, #425, ( #404 ) ) ;
#147 = PRODUCT_DEFINITION ( 'UNKNOWN', '', #195, #408 ) ;
#148 = AXIS2_PLACEMENT_3D ( 'NONE', #41, #60, #57 ) ;
#149 = AXIS2_PLACEMENT_3D ( 'NONE', #69, #86, #66 ) ;
#150 = AXIS2_PLACEMENT_3D ( 'NONE', #120, #73, #70 ) ;
#151 = AXIS2_PLACEMENT_3D ( 'NONE', #123, #82, #80 ) ;
#152 = AXIS2_PLACEMENT_3D ( 'NONE', #118, #101, #93 ) ;
#153 = AXIS2_PLACEMENT_3D ( 'NONE', #117, #103, #109 ) ;
#154 = AXIS2_PLACEMENT_3D ( 'NONE', #36, #25, #21 ) ;
#155 = EDGE_CURVE ( 'NONE', #317, #314, #333, .T. ) ;
#156 = EDGE_CURVE ( 'NONE', #317, #313, #240, .T. ) ;
#157 = EDGE_CURVE ( 'NONE', #274, #274, #276, .T. ) ;
#158 = AXIS2_PLACEMENT_3D ( 'NONE', #1, #115, #114 ) ;
#159 = EDGE_CURVE ( 'NONE', #200, #200, #294, .T. ) ;
#160 = EDGE_CURVE ( 'NONE', #309, #308, #296, .T. ) ;
#161 = EDGE_CURVE ( 'NONE', #316, #314, #337, .T. ) ;
#162 = EDGE_CURVE ( 'NONE', #319, #316, #295, .T. ) ;
#163 = EDGE_CURVE ( 'NONE', #319, #317, #291, .T. ) ;
#164 = EDGE_CURVE ( 'NONE', #315, #316, #288, .T. ) ;
#165 = EDGE_CURVE ( 'NONE', #320, #315, #284, .T. ) ;
#166 = EDGE_CURVE ( 'NONE', #320, #319, #290, .T. ) ;
#167 = EDGE_CURVE ( 'NONE', #318, #315, #270, .T. ) ;
#168 = EDGE_CURVE ( 'NONE', #321, #318, #268, .T. ) ;
#169 = EDGE_CURVE ( 'NONE', #321, #320, #272, .T. ) ;
#170 = EDGE_CURVE ( 'NONE', #318, #310, #264, .T. ) ;
#171 = EDGE_CURVE ( 'NONE', #322, #310, #262, .T. ) ;
#172 = EDGE_CURVE ( 'NONE', #321, #322, #266, .T. ) ;
#173 = EDGE_CURVE ( 'NONE', #238, #238, #260, .T. ) ;
#174 = EDGE_CURVE ( 'NONE', #239, #239, #254, .T. ) ;
#175 = EDGE_CURVE ( 'NONE', #310, #312, #256, .T. ) ;
#176 = EDGE_CURVE ( 'NONE', #322, #311, #255, .T. ) ;
#177 = EDGE_CURVE ( 'NONE', #313, #309, #251, .T. ) ;
#178 = EDGE_CURVE ( 'NONE', #313, #307, #250, .T. ) ;
#179 = EDGE_CURVE ( 'NONE', #311, #309, #248, .T. ) ;
#180 = EDGE_CURVE ( 'NONE', #312, #308, #246, .T. ) ;
#181 = EDGE_CURVE ( 'NONE', #311, #312, #258, .T. ) ;
#182 = EDGE_CURVE ( 'NONE', #314, #307, #243, .T. ) ;
#183 = EDGE_CURVE ( 'NONE', #307, #308, #241, .T. ) ;
#184 = AXIS2_PLACEMENT_3D ( 'NONE', #20, #30, #122 ) ;
#185 = APPROVAL ( #418, 'UNSPECIFIED' ) ;
#186 = APPROVAL ( #411, 'UNSPECIFIED' ) ;
#187 = CC_DESIGN_DATE_AND_TIME_ASSIGNMENT ( #208, #412, ( #189 ) ) ;
#188 = CC_DESIGN_PERSON_AND_ORGANIZATION_ASSIGNMENT ( #212, #413, ( #189 ) ) ;
#189 = SECURITY_CLASSIFICATION ( '', '', #414 ) ;
#190 = CC_DESIGN_PERSON_AND_ORGANIZATION_ASSIGNMENT ( #213, #415, ( #195 ) ) ;
#191 = CC_DESIGN_APPROVAL ( #185, ( #195 ) ) ;
#192 = CC_DESIGN_APPROVAL ( #144, ( #147 ) ) ;
#193 = CC_DESIGN_PERSON_AND_ORGANIZATION_ASSIGNMENT ( #226, #420, ( #147 ) ) ;
#194 = CC_DESIGN_DATE_AND_TIME_ASSIGNMENT ( #222, #419, ( #147 ) ) ;
#195 = PRODUCT_DEFINITION_FORMATION_WITH_SPECIFIED_SOURCE ( 'ANY', '', #404, .NOT_KNOWN. ) ;
#196 = CC_DESIGN_PERSON_AND_ORGANIZATION_ASSIGNMENT ( #214, #416, ( #195 ) ) ;
#197 = CC_DESIGN_APPROVAL ( #186, ( #189 ) ) ;
#198 = PRODUCT_RELATED_PRODUCT_CATEGORY ( 'detail', '', ( #404 ) ) ;
#199 = CC_DESIGN_SECURITY_CLASSIFICATION ( #189, ( #195 ) ) ;
#200 = VERTEX_POINT ( 'NONE', #436 ) ;
#201 = APPROVAL_DATE_TIME ( #202, #186 ) ;
#202 = DATE_AND_TIME ( #203, #204 ) ;
#203 = CALENDAR_DATE ( 2012, 9, 11 ) ;
#204 = LOCAL_TIME ( 12, 44, 19.00000000000000000, #205 ) ;
#205 = COORDINATED_UNIVERSAL_TIME_OFFSET ( 4, 0, .AHEAD. ) ;
#206 = APPROVAL_PERSON_ORGANIZATION ( #207, #186, #410 ) ;
#207 = PERSON_AND_ORGANIZATION ( #403, #236 ) ;
#208 = DATE_AND_TIME ( #209, #210 ) ;
#209 = CALENDAR_DATE ( 2012, 9, 11 ) ;
#210 = LOCAL_TIME ( 12, 44, 19.00000000000000000, #211 ) ;
#211 = COORDINATED_UNIVERSAL_TIME_OFFSET ( 4, 0, .AHEAD. ) ;
#212 = PERSON_AND_ORGANIZATION ( #403, #236 ) ;
#213 = PERSON_AND_ORGANIZATION ( #403, #236 ) ;
#214 = PERSON_AND_ORGANIZATION ( #403, #236 ) ;
#215 = APPROVAL_DATE_TIME ( #216, #185 ) ;
#216 = DATE_AND_TIME ( #217, #218 ) ;
#217 = CALENDAR_DATE ( 2012, 9, 11 ) ;
#218 = LOCAL_TIME ( 12, 44, 19.00000000000000000, #219 ) ;
#219 = COORDINATED_UNIVERSAL_TIME_OFFSET ( 4, 0, .AHEAD. ) ;
#220 = APPROVAL_PERSON_ORGANIZATION ( #221, #185, #417 ) ;
#221 = PERSON_AND_ORGANIZATION ( #403, #236 ) ;
#222 = DATE_AND_TIME ( #223, #224 ) ;
#223 = CALENDAR_DATE ( 2012, 9, 11 ) ;
#224 = LOCAL_TIME ( 12, 44, 19.00000000000000000, #225 ) ;
#225 = COORDINATED_UNIVERSAL_TIME_OFFSET ( 4, 0, .AHEAD. ) ;
#226 = PERSON_AND_ORGANIZATION ( #403, #236 ) ;
#227 = APPROVAL_DATE_TIME ( #228, #144 ) ;
#228 = DATE_AND_TIME ( #229, #230 ) ;
#229 = CALENDAR_DATE ( 2012, 9, 11 ) ;
#230 = LOCAL_TIME ( 12, 44, 19.00000000000000000, #231 ) ;
#231 = COORDINATED_UNIVERSAL_TIME_OFFSET ( 4, 0, .AHEAD. ) ;
#232 = VECTOR ( 'NONE', #16, 1000.000000000000000 ) ;
#233 = APPROVAL_PERSON_ORGANIZATION ( #234, #144, #421 ) ;
#234 = PERSON_AND_ORGANIZATION ( #403, #236 ) ;
#235 = PERSON_AND_ORGANIZATION ( #403, #236 ) ;
#236 = ORGANIZATION ( 'UNSPECIFIED', 'UNSPECIFIED', '' ) ;
#237 = VECTOR ( 'NONE', #23, 1000.000000000000000 ) ;
#238 = VERTEX_POINT ( 'NONE', #437 ) ;
#239 = VERTEX_POINT ( 'NONE', #435 ) ;
#240 = LINE ( 'NONE', #110, #297 ) ;
#241 = LINE ( 'NONE', #22, #232 ) ;
#242 = VECTOR ( 'NONE', #26, 1000.000000000000000 ) ;
#243 = LINE ( 'NONE', #24, #237 ) ;
#244 = VECTOR ( 'NONE', #27, 1000.000000000000000 ) ;
#245 = VECTOR ( 'NONE', #31, 1000.000000000000000 ) ;
#246 = LINE ( 'NONE', #29, #244 ) ;
#247 = VECTOR ( 'NONE', #33, 1000.000000000000000 ) ;
#248 = LINE ( 'NONE', #32, #245 ) ;
#249 = VECTOR ( 'NONE', #37, 1000.000000000000000 ) ;
#250 = LINE ( 'NONE', #34, #247 ) ;
#251 = LINE ( 'NONE', #38, #249 ) ;
#252 = VECTOR ( 'NONE', #44, 1000.000000000000000 ) ;
#253 = VECTOR ( 'NONE', #39, 1000.000000000000000 ) ;
#254 = CIRCLE ( 'NONE', #136, 2.500000000000002200 ) ;
#255 = LINE ( 'NONE', #55, #253 ) ;
#256 = LINE ( 'NONE', #56, #252 ) ;
#257 = VECTOR ( 'NONE', #58, 1000.000000000000000 ) ;
#258 = LINE ( 'NONE', #40, #242 ) ;
#259 = VECTOR ( 'NONE', #59, 1000.000000000000000 ) ;
#260 = CIRCLE ( 'NONE', #141, 2.500000000000057700 ) ;
#261 = VECTOR ( 'NONE', #64, 1000.000000000000000 ) ;
#262 = LINE ( 'NONE', #61, #259 ) ;
#263 = VECTOR ( 'NONE', #71, 1000.000000000000000 ) ;
#264 = LINE ( 'NONE', #65, #261 ) ;
#265 = VECTOR ( 'NONE', #72, 1000.000000000000000 ) ;
#266 = LINE ( 'NONE', #81, #257 ) ;
#267 = VECTOR ( 'NONE', #76, 1000.000000000000000 ) ;
#268 = LINE ( 'NONE', #75, #265 ) ;
#269 = VECTOR ( 'NONE', #78, 1000.000000000000000 ) ;
#270 = LINE ( 'NONE', #77, #267 ) ;
#271 = VECTOR ( 'NONE', #79, 1000.000000000000000 ) ;
#272 = LINE ( 'NONE', #88, #263 ) ;
#273 = VECTOR ( 'NONE', #84, 1000.000000000000000 ) ;
#274 = VERTEX_POINT ( 'NONE', #433 ) ;
#275 = SHAPE_DEFINITION_REPRESENTATION ( #409, #406 ) ;
#276 = CIRCLE ( 'NONE', #145, 2.500000000000057700 ) ;
#277 = FACE_BOUND ( 'NONE', #391, .T. ) ;
#278 = FACE_OUTER_BOUND ( 'NONE', #398, .T. ) ;
#279 = CYLINDRICAL_SURFACE ( 'NONE', #137, 2.500000000000002200 ) ;
#280 = FACE_OUTER_BOUND ( 'NONE', #392, .T. ) ;
#281 = FACE_OUTER_BOUND ( 'NONE', #402, .T. ) ;
#282 = FACE_OUTER_BOUND ( 'NONE', #397, .T. ) ;
#283 = FACE_BOUND ( 'NONE', #395, .T. ) ;
#284 = LINE ( 'NONE', #83, #271 ) ;
#285 = FACE_OUTER_BOUND ( 'NONE', #393, .T. ) ;
#286 = VECTOR ( 'NONE', #87, 1000.000000000000000 ) ;
#287 = FACE_OUTER_BOUND ( 'NONE', #396, .T. ) ;
#288 = LINE ( 'NONE', #85, #273 ) ;
#289 = VECTOR ( 'NONE', #90, 1000.000000000000000 ) ;
#290 = LINE ( 'NONE', #91, #269 ) ;
#291 = LINE ( 'NONE', #98, #286 ) ;
#292 = VECTOR ( 'NONE', #94, 1000.000000000000000 ) ;
#293 = VECTOR ( 'NONE', #105, 1000.000000000000000 ) ;
#294 = CIRCLE ( 'NONE', #142, 2.500000000000002200 ) ;
#295 = LINE ( 'NONE', #104, #289 ) ;
#296 = LINE ( 'NONE', #106, #292 ) ;
#297 = VECTOR ( 'NONE', #116, 1000.000000000000000 ) ;
#298 = FACE_BOUND ( 'NONE', #384, .T. ) ;
#299 = FACE_OUTER_BOUND ( 'NONE', #383, .T. ) ;
#300 = FACE_OUTER_BOUND ( 'NONE', #394, .T. ) ;
#301 = FACE_BOUND ( 'NONE', #388, .T. ) ;
#302 = CYLINDRICAL_SURFACE ( 'NONE', #153, 2.500000000000057700 ) ;
#303 = FACE_OUTER_BOUND ( 'NONE', #385, .T. ) ;
#304 = FACE_OUTER_BOUND ( 'NONE', #387, .T. ) ;
#305 = FACE_OUTER_BOUND ( 'NONE', #386, .T. ) ;
#306 = FACE_OUTER_BOUND ( 'NONE', #389, .T. ) ;
#307 = VERTEX_POINT ( 'NONE', #28 ) ;
#308 = VERTEX_POINT ( 'NONE', #18 ) ;
#309 = VERTEX_POINT ( 'NONE', #14 ) ;
#310 = VERTEX_POINT ( 'NONE', #13 ) ;
#311 = VERTEX_POINT ( 'NONE', #12 ) ;
#312 = VERTEX_POINT ( 'NONE', #15 ) ;
#313 = VERTEX_POINT ( 'NONE', #11 ) ;
#314 = VERTEX_POINT ( 'NONE', #54 ) ;
#315 = VERTEX_POINT ( 'NONE', #10 ) ;
#316 = VERTEX_POINT ( 'NONE', #9 ) ;
#317 = VERTEX_POINT ( 'NONE', #8 ) ;
#318 = VERTEX_POINT ( 'NONE', #7 ) ;
#319 = VERTEX_POINT ( 'NONE', #6 ) ;
#320 = VERTEX_POINT ( 'NONE', #5 ) ;
#321 = VERTEX_POINT ( 'NONE', #4 ) ;
#322 = VERTEX_POINT ( 'NONE', #3 ) ;
#323 = ORIENTED_EDGE ( 'NONE', *, *, #155, .T. ) ;
#324 = ORIENTED_EDGE ( 'NONE', *, *, #179, .F. ) ;
#325 = ORIENTED_EDGE ( 'NONE', *, *, #180, .T. ) ;
#326 = ORIENTED_EDGE ( 'NONE', *, *, #182, .F. ) ;
#327 = ORIENTED_EDGE ( 'NONE', *, *, #160, .T. ) ;
#328 = ORIENTED_EDGE ( 'NONE', *, *, #155, .F. ) ;
#329 = ORIENTED_EDGE ( 'NONE', *, *, #177, .T. ) ;
#330 = ORIENTED_EDGE ( 'NONE', *, *, #178, .F. ) ;
#331 = ORIENTED_EDGE ( 'NONE', *, *, #183, .F. ) ;
#332 = ORIENTED_EDGE ( 'NONE', *, *, #181, .T. ) ;
#333 = LINE ( 'NONE', #108, #334 ) ;
#334 = VECTOR ( 'NONE', #107, 1000.000000000000000 ) ;
#335 = ORIENTED_EDGE ( 'NONE', *, *, #160, .F. ) ;
#336 = ORIENTED_EDGE ( 'NONE', *, *, #178, .T. ) ;
#337 = LINE ( 'NONE', #92, #293 ) ;
#338 = ORIENTED_EDGE ( 'NONE', *, *, #156, .T. ) ;
#339 = ORIENTED_EDGE ( 'NONE', *, *, #159, .F. ) ;
#340 = ORIENTED_EDGE ( 'NONE', *, *, #157, .F. ) ;
#341 = ORIENTED_EDGE ( 'NONE', *, *, #161, .F. ) ;
#342 = ORIENTED_EDGE ( 'NONE', *, *, #162, .F. ) ;
#343 = ORIENTED_EDGE ( 'NONE', *, *, #163, .T. ) ;
#344 = ORIENTED_EDGE ( 'NONE', *, *, #164, .F. ) ;
#345 = ORIENTED_EDGE ( 'NONE', *, *, #166, .T. ) ;
#346 = ORIENTED_EDGE ( 'NONE', *, *, #165, .F. ) ;
#347 = ORIENTED_EDGE ( 'NONE', *, *, #167, .F. ) ;
#348 = ORIENTED_EDGE ( 'NONE', *, *, #168, .F. ) ;
#349 = ORIENTED_EDGE ( 'NONE', *, *, #169, .T. ) ;
#350 = ORIENTED_EDGE ( 'NONE', *, *, #162, .T. ) ;
#351 = ORIENTED_EDGE ( 'NONE', *, *, #170, .T. ) ;
#352 = ORIENTED_EDGE ( 'NONE', *, *, #165, .T. ) ;
#353 = ORIENTED_EDGE ( 'NONE', *, *, #171, .F. ) ;
#354 = ORIENTED_EDGE ( 'NONE', *, *, #171, .T. ) ;
#355 = ORIENTED_EDGE ( 'NONE', *, *, #176, .F. ) ;
#356 = ORIENTED_EDGE ( 'NONE', *, *, #179, .T. ) ;
#357 = ORIENTED_EDGE ( 'NONE', *, *, #181, .F. ) ;
#358 = ORIENTED_EDGE ( 'NONE', *, *, #175, .T. ) ;
#359 = ORIENTED_EDGE ( 'NONE', *, *, #174, .F. ) ;
#360 = ORIENTED_EDGE ( 'NONE', *, *, #173, .F. ) ;
#361 = ORIENTED_EDGE ( 'NONE', *, *, #168, .T. ) ;
#362 = ORIENTED_EDGE ( 'NONE', *, *, #172, .F. ) ;
#363 = ORIENTED_EDGE ( 'NONE', *, *, #156, .F. ) ;
#364 = ORIENTED_EDGE ( 'NONE', *, *, #177, .F. ) ;
#365 = ORIENTED_EDGE ( 'NONE', *, *, #163, .F. ) ;
#366 = ORIENTED_EDGE ( 'NONE', *, *, #167, .T. ) ;
#367 = ORIENTED_EDGE ( 'NONE', *, *, #170, .F. ) ;
#368 = ORIENTED_EDGE ( 'NONE', *, *, #164, .T. ) ;
#369 = ORIENTED_EDGE ( 'NONE', *, *, #175, .F. ) ;
#370 = ORIENTED_EDGE ( 'NONE', *, *, #180, .F. ) ;
#371 = ORIENTED_EDGE ( 'NONE', *, *, #176, .T. ) ;
#372 = ORIENTED_EDGE ( 'NONE', *, *, #172, .T. ) ;
#373 = ORIENTED_EDGE ( 'NONE', *, *, #169, .F. ) ;
#374 = ORIENTED_EDGE ( 'NONE', *, *, #166, .F. ) ;
#375 = ORIENTED_EDGE ( 'NONE', *, *, #182, .T. ) ;
#376 = ORIENTED_EDGE ( 'NONE', *, *, #161, .T. ) ;
#377 = ORIENTED_EDGE ( 'NONE', *, *, #157, .T. ) ;
#378 = ORIENTED_EDGE ( 'NONE', *, *, #174, .T. ) ;
#379 = ORIENTED_EDGE ( 'NONE', *, *, #159, .T. ) ;
#380 = ORIENTED_EDGE ( 'NONE', *, *, #183, .T. ) ;
#381 = CLOSED_SHELL ( 'NONE', ( #126, #127, #125, #128, #129, #135, #134, #133, #130, #132, #131, #124 ) ) ;
#382 = ORIENTED_EDGE ( 'NONE', *, *, #173, .T. ) ;
#383 = EDGE_LOOP ( 'NONE', ( #344, #346, #345, #350 ) ) ;
#384 = EDGE_LOOP ( 'NONE', ( #339 ) ) ;
#385 = EDGE_LOOP ( 'NONE', ( #356, #364, #363, #365, #374, #373, #372, #371 ) ) ;
#386 = EDGE_LOOP ( 'NONE', ( #326, #328, #338, #336 ) ) ;
#387 = EDGE_LOOP ( 'NONE', ( #325, #335, #324, #332 ) ) ;
#388 = EDGE_LOOP ( 'NONE', ( #340 ) ) ;
#389 = EDGE_LOOP ( 'NONE', ( #331, #330, #329, #327 ) ) ;
#390 = FACE_OUTER_BOUND ( 'NONE', #400, .T. ) ;
#391 = EDGE_LOOP ( 'NONE', ( #359 ) ) ;
#392 = EDGE_LOOP ( 'NONE', ( #347, #348, #349, #352 ) ) ;
#393 = EDGE_LOOP ( 'NONE', ( #379 ) ) ;
#394 = EDGE_LOOP ( 'NONE', ( #341, #342, #343, #323 ) ) ;
#395 = EDGE_LOOP ( 'NONE', ( #360 ) ) ;
#396 = EDGE_LOOP ( 'NONE', ( #370, #369, #367, #366, #368, #376, #375, #380 ) ) ;
#397 = EDGE_LOOP ( 'NONE', ( #358, #357, #355, #354 ) ) ;
#398 = EDGE_LOOP ( 'NONE', ( #351, #353, #362, #361 ) ) ;
#399 = EDGE_LOOP ( 'NONE', ( #382 ) ) ;
#400 = EDGE_LOOP ( 'NONE', ( #377 ) ) ;
#401 = FACE_OUTER_BOUND ( 'NONE', #399, .T. ) ;
#402 = EDGE_LOOP ( 'NONE', ( #378 ) ) ;
#403 = PERSON ( 'UNSPECIFIED', 'UNSPECIFIED', 'UNSPECIFIED', ('UNSPECIFIED'), ('UNSPECIFIED'), ('UNSPECIFIED') ) ;
#404 = PRODUCT ( 'Êðûøêà íà îòâåòâèòåëü Ò-îáðàçíûé âåðòèêàëüíûé TDSA_38384', 'Êðûøêà íà îòâåòâèòåëü Ò-îáðàçíûé âåðòèêàëüíûé TDSA_38384', '', ( #426 ) ) ;
#405 = MANIFOLD_SOLID_BREP ( 'Âûðåç-Âûòÿíóòü1', #381 ) ;
#406 = ADVANCED_BREP_SHAPE_REPRESENTATION ( '¦¨v°úð ýð þªòõªòøªõû¹ T-þñ¨ð÷ývù òõ¨ªøúðû¹ývù TDSA_38384', ( #405, #138 ), #140 ) ;
#407 = UNCERTAINTY_MEASURE_WITH_UNIT (LENGTH_MEASURE( 1.000000000000000100E-005 ), #432, 'distance_accuracy_value', 'NONE');
#408 = DESIGN_CONTEXT ( 'detailed design', #424, 'design' ) ;
#409 = PRODUCT_DEFINITION_SHAPE ( 'NONE', 'NONE',  #147 ) ;
#410 = APPROVAL_ROLE ( '' ) ;
#411 = APPROVAL_STATUS ( 'not_yet_approved' ) ;
#412 = DATE_TIME_ROLE ( 'classification_date' ) ;
#413 = PERSON_AND_ORGANIZATION_ROLE ( 'classification_officer' ) ;
#414 = SECURITY_CLASSIFICATION_LEVEL ( 'unclassified' ) ;
#415 = PERSON_AND_ORGANIZATION_ROLE ( 'design_supplier' ) ;
#416 = PERSON_AND_ORGANIZATION_ROLE ( 'creator' ) ;
#417 = APPROVAL_ROLE ( '' ) ;
#418 = APPROVAL_STATUS ( 'not_yet_approved' ) ;
#419 = DATE_TIME_ROLE ( 'creation_date' ) ;
#420 = PERSON_AND_ORGANIZATION_ROLE ( 'creator' ) ;
#421 = APPROVAL_ROLE ( '' ) ;
#422 = APPROVAL_STATUS ( 'not_yet_approved' ) ;
#423 = APPLICATION_PROTOCOL_DEFINITION ( 'international standard', 'config_control_design', 1994, #424 ) ;
#424 = APPLICATION_CONTEXT ( 'configuration controlled 3d designs of mechanical parts and assemblies' ) ;
#425 = PERSON_AND_ORGANIZATION_ROLE ( 'design_owner' ) ;
#426 = MECHANICAL_CONTEXT ( 'NONE', #428, 'mechanical' ) ;
#427 = DIRECTION ( 'NONE',  ( 1.000000000000000000, 0.0000000000000000000, 0.0000000000000000000 ) ) ;
#428 = APPLICATION_CONTEXT ( 'configuration controlled 3d designs of mechanical parts and assemblies' ) ;
#429 = APPLICATION_PROTOCOL_DEFINITION ( 'international standard', 'config_control_design', 1994, #428 ) ;
#430 =( NAMED_UNIT ( * ) SI_UNIT ( $, .STERADIAN. ) SOLID_ANGLE_UNIT ( ) );
#431 =( NAMED_UNIT ( * ) PLANE_ANGLE_UNIT ( ) SI_UNIT ( $, .RADIAN. ) );
#432 =( LENGTH_UNIT ( ) NAMED_UNIT ( * ) SI_UNIT ( .MILLI., .METRE. ) );
#433 = CARTESIAN_POINT ( 'NONE',  ( 0.0000000000000000000, 0.5999999999999999800, 542.5000000000000000 ) ) ;
#434 = DIRECTION ( 'NONE',  ( 0.0000000000000000000, 0.0000000000000000000, 1.000000000000000000 ) ) ;
#435 = CARTESIAN_POINT ( 'NONE',  ( 1.734723475976807100E-015, 0.0000000000000000000, 17.49999999999999600 ) ) ;
#436 = CARTESIAN_POINT ( 'NONE',  ( 1.734723475976807100E-015, 0.5999999999999999800, 17.49999999999999600 ) ) ;
#437 = CARTESIAN_POINT ( 'NONE',  ( 0.0000000000000000000, 0.0000000000000000000, 547.5000000000001100 ) ) ;
ENDSEC;
END-ISO-10303-21;
