ISO-10303-21;
HEADER;
FILE_DESCRIPTION (( 'STEP AP203' ),
    '1' );
FILE_NAME ('CLP1M-SH-10 Øàéáà ïëîñêàÿ M10.STEP',
    '2016-02-12T06:14:37',
    ( '' ),
    ( '' ),
    'SwSTEP 2.0',
    'SolidWorks 2014',
    '' );
FILE_SCHEMA (( 'CONFIG_CONTROL_DESIGN' ));
ENDSEC;

DATA;
#1 = APPROVAL_STATUS ( 'not_yet_approved' ) ;
#2 = ORGANIZATION ( 'UNSPECIFIED', 'UNSPECIFIED', '' ) ;
#3 = AXIS2_PLACEMENT_3D ( 'NONE', #126, #45, #146 ) ;
#4 =( NAMED_UNIT ( * ) SI_UNIT ( $, .STERADIAN. ) SOLID_ANGLE_UNIT ( ) );
#5 = DIRECTION ( 'NONE',  ( -1.000000000000000000, 0.0000000000000000000, 0.0000000000000000000 ) ) ;
#6 = PERSON_AND_ORGANIZATION_ROLE ( 'design_supplier' ) ;
#7 = CARTESIAN_POINT ( 'NONE',  ( 0.0000000000000000000, 0.0000000000000000000, 0.0000000000000000000 ) ) ;
#8 = EDGE_LOOP ( 'NONE', ( #119 ) ) ;
#9 =( NAMED_UNIT ( * ) PLANE_ANGLE_UNIT ( ) SI_UNIT ( $, .RADIAN. ) );
#10 = DATE_TIME_ROLE ( 'classification_date' ) ;
#11 = DIRECTION ( 'NONE',  ( 0.0000000000000000000, 0.0000000000000000000, 1.000000000000000000 ) ) ;
#12 = AXIS2_PLACEMENT_3D ( 'NONE', #71, #11, #128 ) ;
#13 = APPROVAL_PERSON_ORGANIZATION ( #48, #153, #136 ) ;
#14 = ADVANCED_FACE ( 'NONE', ( #61, #111 ), #56, .T. ) ;
#15 = EDGE_LOOP ( 'NONE', ( #43 ) ) ;
#16 = COORDINATED_UNIVERSAL_TIME_OFFSET ( 3, 0, .AHEAD. ) ;
#17 = FACE_OUTER_BOUND ( 'NONE', #52, .T. ) ;
#18 = DIRECTION ( 'NONE',  ( -0.0000000000000000000, -0.0000000000000000000, -1.000000000000000000 ) ) ;
#19 =( LENGTH_UNIT ( ) NAMED_UNIT ( * ) SI_UNIT ( .MILLI., .METRE. ) );
#20 = PERSON_AND_ORGANIZATION_ROLE ( 'creator' ) ;
#21 = DIRECTION ( 'NONE',  ( 1.000000000000000000, 0.0000000000000000000, -0.0000000000000000000 ) ) ;
#22 = DATE_AND_TIME ( #54, #90 ) ;
#23 = FACE_OUTER_BOUND ( 'NONE', #15, .T. ) ;
#24 = VERTEX_POINT ( 'NONE', #83 ) ;
#25 = PERSON_AND_ORGANIZATION ( #47, #2 ) ;
#26 = FACE_OUTER_BOUND ( 'NONE', #115, .T. ) ;
#27 = VERTEX_POINT ( 'NONE', #41 ) ;
#28 = UNCERTAINTY_MEASURE_WITH_UNIT (LENGTH_MEASURE( 1.000000000000000100E-005 ), #19, 'distance_accuracy_value', 'NONE');
#29 = APPROVAL_DATE_TIME ( #40, #153 ) ;
#30 = PERSON_AND_ORGANIZATION ( #47, #2 ) ;
#31 = EDGE_LOOP ( 'NONE', ( #94 ) ) ;
#32 = CARTESIAN_POINT ( 'NONE',  ( 0.0000000000000000000, 0.0000000000000000000, 2.000000000000000000 ) ) ;
#33 = DIRECTION ( 'NONE',  ( 0.0000000000000000000, 0.0000000000000000000, 1.000000000000000000 ) ) ;
#34 = CC_DESIGN_PERSON_AND_ORGANIZATION_ASSIGNMENT ( #138, #44, ( #130 ) ) ;
#35 = APPROVAL_ROLE ( '' ) ;
#36 = APPLICATION_CONTEXT ( 'configuration controlled 3d designs of mechanical parts and assemblies' ) ;
#37 = COORDINATED_UNIVERSAL_TIME_OFFSET ( 3, 0, .AHEAD. ) ;
#38 = PRODUCT_DEFINITION ( 'UNKNOWN', '', #80, #81 ) ;
#39 = EDGE_LOOP ( 'NONE', ( #65 ) ) ;
#40 = DATE_AND_TIME ( #75, #114 ) ;
#41 = CARTESIAN_POINT ( 'NONE',  ( 10.00000000000000000, 0.0000000000000000000, 2.000000000000000000 ) ) ;
#42 = APPROVAL_STATUS ( 'not_yet_approved' ) ;
#43 = ORIENTED_EDGE ( 'NONE', *, *, #68, .F. ) ;
#44 = PERSON_AND_ORGANIZATION_ROLE ( 'design_owner' ) ;
#45 = DIRECTION ( 'NONE',  ( -0.0000000000000000000, -0.0000000000000000000, -1.000000000000000000 ) ) ;
#46 = AXIS2_PLACEMENT_3D ( 'NONE', #99, #33, #123 ) ;
#47 = PERSON ( 'UNSPECIFIED', 'UNSPECIFIED', 'UNSPECIFIED', ('UNSPECIFIED'), ('UNSPECIFIED'), ('UNSPECIFIED') ) ;
#48 = PERSON_AND_ORGANIZATION ( #47, #2 ) ;
#49 = APPROVAL ( #1, 'UNSPECIFIED' ) ;
#50 = PERSON_AND_ORGANIZATION ( #47, #2 ) ;
#51 = CIRCLE ( 'NONE', #133, 5.250000000000000000 ) ;
#52 = EDGE_LOOP ( 'NONE', ( #143 ) ) ;
#53 = EDGE_LOOP ( 'NONE', ( #167 ) ) ;
#54 = CALENDAR_DATE ( 2016, 12, 2 ) ;
#55 = CIRCLE ( 'NONE', #120, 5.250000000000000000 ) ;
#56 = PLANE ( 'NONE',  #112 ) ;
#57 = PLANE ( 'NONE',  #12 ) ;
#58 = CC_DESIGN_APPROVAL ( #49, ( #38 ) ) ;
#59 = DATE_TIME_ROLE ( 'creation_date' ) ;
#60 = DATE_AND_TIME ( #93, #132 ) ;
#61 = FACE_OUTER_BOUND ( 'NONE', #8, .T. ) ;
#62 = FACE_OUTER_BOUND ( 'NONE', #89, .T. ) ;
#63 = APPROVAL_DATE_TIME ( #98, #49 ) ;
#64 = ORIENTED_EDGE ( 'NONE', *, *, #110, .F. ) ;
#65 = ORIENTED_EDGE ( 'NONE', *, *, #85, .F. ) ;
#66 = CC_DESIGN_PERSON_AND_ORGANIZATION_ASSIGNMENT ( #30, #72, ( #38 ) ) ;
#67 = APPROVAL_PERSON_ORGANIZATION ( #103, #49, #82 ) ;
#68 = EDGE_CURVE ( 'NONE', #27, #27, #160, .T. ) ;
#69 = DIRECTION ( 'NONE',  ( 1.000000000000000000, 0.0000000000000000000, 0.0000000000000000000 ) ) ;
#70 = CARTESIAN_POINT ( 'NONE',  ( 0.0000000000000000000, 0.0000000000000000000, 2.000000000000000000 ) ) ;
#71 = CARTESIAN_POINT ( 'NONE',  ( 0.0000000000000000000, 0.0000000000000000000, 0.0000000000000000000 ) ) ;
#72 = PERSON_AND_ORGANIZATION_ROLE ( 'creator' ) ;
#73 = CC_DESIGN_DATE_AND_TIME_ASSIGNMENT ( #60, #59, ( #38 ) ) ;
#74 = CLOSED_SHELL ( 'NONE', ( #14, #168, #140, #102 ) ) ;
#75 = CALENDAR_DATE ( 2016, 12, 2 ) ;
#76 = CC_DESIGN_APPROVAL ( #153, ( #131 ) ) ;
#77 = DATE_AND_TIME ( #116, #151 ) ;
#78 = CARTESIAN_POINT ( 'NONE',  ( 0.0000000000000000000, 0.0000000000000000000, 2.000000000000000000 ) ) ;
#79 = DIRECTION ( 'NONE',  ( 1.000000000000000000, 0.0000000000000000000, 0.0000000000000000000 ) ) ;
#80 = PRODUCT_DEFINITION_FORMATION_WITH_SPECIFIED_SOURCE ( 'ANY', '', #130, .NOT_KNOWN. ) ;
#81 = DESIGN_CONTEXT ( 'detailed design', #36, 'design' ) ;
#82 = APPROVAL_ROLE ( '' ) ;
#83 = CARTESIAN_POINT ( 'NONE',  ( 5.250000000000000000, 0.0000000000000000000, 2.000000000000000000 ) ) ;
#84 = PERSON_AND_ORGANIZATION ( #47, #2 ) ;
#85 = EDGE_CURVE ( 'NONE', #24, #24, #55, .T. ) ;
#86 = CYLINDRICAL_SURFACE ( 'NONE', #144, 5.250000000000000000 ) ;
#87 = ADVANCED_BREP_SHAPE_REPRESENTATION ( 'CLP1M-SH-10 +ðùñð ÿûþ¸úð  M10', ( #117, #46 ), #154 ) ;
#88 = CC_DESIGN_SECURITY_CLASSIFICATION ( #131, ( #80 ) ) ;
#89 = EDGE_LOOP ( 'NONE', ( #134 ) ) ;
#90 = LOCAL_TIME ( 9, 14, 37.00000000000000000, #127 ) ;
#91 = FACE_OUTER_BOUND ( 'NONE', #53, .T. ) ;
#92 = APPROVAL ( #42, 'UNSPECIFIED' ) ;
#93 = CALENDAR_DATE ( 2016, 12, 2 ) ;
#94 = ORIENTED_EDGE ( 'NONE', *, *, #110, .T. ) ;
#95 = DIRECTION ( 'NONE',  ( 1.000000000000000000, 0.0000000000000000000, 0.0000000000000000000 ) ) ;
#96 = PRODUCT_RELATED_PRODUCT_CATEGORY ( 'detail', '', ( #130 ) ) ;
#97 = DIRECTION ( 'NONE',  ( 0.0000000000000000000, 0.0000000000000000000, 1.000000000000000000 ) ) ;
#98 = DATE_AND_TIME ( #135, #169 ) ;
#99 = CARTESIAN_POINT ( 'NONE',  ( 0.0000000000000000000, 0.0000000000000000000, 0.0000000000000000000 ) ) ;
#100 = SECURITY_CLASSIFICATION_LEVEL ( 'unclassified' ) ;
#101 = CC_DESIGN_APPROVAL ( #92, ( #80 ) ) ;
#102 = ADVANCED_FACE ( 'NONE', ( #91, #26 ), #86, .F. ) ;
#103 = PERSON_AND_ORGANIZATION ( #47, #2 ) ;
#104 = AXIS2_PLACEMENT_3D ( 'NONE', #32, #106, #95 ) ;
#105 = EDGE_CURVE ( 'NONE', #157, #157, #122, .T. ) ;
#106 = DIRECTION ( 'NONE',  ( 0.0000000000000000000, 0.0000000000000000000, 1.000000000000000000 ) ) ;
#107 = CARTESIAN_POINT ( 'NONE',  ( 0.0000000000000000000, 0.0000000000000000000, 0.0000000000000000000 ) ) ;
#108 = CC_DESIGN_PERSON_AND_ORGANIZATION_ASSIGNMENT ( #121, #20, ( #80 ) ) ;
#109 = APPLICATION_PROTOCOL_DEFINITION ( 'international standard', 'config_control_design', 1994, #36 ) ;
#110 = EDGE_CURVE ( 'NONE', #124, #124, #51, .T. ) ;
#111 = FACE_BOUND ( 'NONE', #39, .T. ) ;
#112 = AXIS2_PLACEMENT_3D ( 'NONE', #70, #163, #21 ) ;
#113 = CARTESIAN_POINT ( 'NONE',  ( 10.00000000000000000, 0.0000000000000000000, 0.0000000000000000000 ) ) ;
#114 = LOCAL_TIME ( 9, 14, 37.00000000000000000, #145 ) ;
#115 = EDGE_LOOP ( 'NONE', ( #64 ) ) ;
#116 = CALENDAR_DATE ( 2016, 12, 2 ) ;
#117 = MANIFOLD_SOLID_BREP ( 'Âûòÿíóòü1', #74 ) ;
#118 = CC_DESIGN_PERSON_AND_ORGANIZATION_ASSIGNMENT ( #84, #6, ( #80 ) ) ;
#119 = ORIENTED_EDGE ( 'NONE', *, *, #68, .T. ) ;
#120 = AXIS2_PLACEMENT_3D ( 'NONE', #78, #162, #69 ) ;
#121 = PERSON_AND_ORGANIZATION ( #47, #2 ) ;
#122 = CIRCLE ( 'NONE', #139, 10.00000000000000000 ) ;
#123 = DIRECTION ( 'NONE',  ( 1.000000000000000000, 0.0000000000000000000, 0.0000000000000000000 ) ) ;
#124 = VERTEX_POINT ( 'NONE', #152 ) ;
#125 = CARTESIAN_POINT ( 'NONE',  ( 0.0000000000000000000, 0.0000000000000000000, 2.000000000000000000 ) ) ;
#126 = CARTESIAN_POINT ( 'NONE',  ( 0.0000000000000000000, 0.0000000000000000000, 2.000000000000000000 ) ) ;
#127 = COORDINATED_UNIVERSAL_TIME_OFFSET ( 3, 0, .AHEAD. ) ;
#128 = DIRECTION ( 'NONE',  ( 1.000000000000000000, 0.0000000000000000000, -0.0000000000000000000 ) ) ;
#129 = SHAPE_DEFINITION_REPRESENTATION ( #158, #87 ) ;
#130 = PRODUCT ( 'CLP1M-SH-10 Øàéáà ïëîñêàÿ M10', 'CLP1M-SH-10 Øàéáà ïëîñêàÿ M10', '', ( #141 ) ) ;
#131 = SECURITY_CLASSIFICATION ( '', '', #100 ) ;
#132 = LOCAL_TIME ( 9, 14, 37.00000000000000000, #166 ) ;
#133 = AXIS2_PLACEMENT_3D ( 'NONE', #107, #97, #79 ) ;
#134 = ORIENTED_EDGE ( 'NONE', *, *, #105, .F. ) ;
#135 = CALENDAR_DATE ( 2016, 12, 2 ) ;
#136 = APPROVAL_ROLE ( '' ) ;
#137 = CC_DESIGN_PERSON_AND_ORGANIZATION_ASSIGNMENT ( #50, #164, ( #131 ) ) ;
#138 = PERSON_AND_ORGANIZATION ( #47, #2 ) ;
#139 = AXIS2_PLACEMENT_3D ( 'NONE', #7, #165, #149 ) ;
#140 = ADVANCED_FACE ( 'NONE', ( #23, #17 ), #161, .T. ) ;
#141 = MECHANICAL_CONTEXT ( 'NONE', #147, 'mechanical' ) ;
#142 = CC_DESIGN_DATE_AND_TIME_ASSIGNMENT ( #77, #10, ( #131 ) ) ;
#143 = ORIENTED_EDGE ( 'NONE', *, *, #105, .T. ) ;
#144 = AXIS2_PLACEMENT_3D ( 'NONE', #125, #18, #5 ) ;
#145 = COORDINATED_UNIVERSAL_TIME_OFFSET ( 3, 0, .AHEAD. ) ;
#146 = DIRECTION ( 'NONE',  ( -1.000000000000000000, 0.0000000000000000000, 0.0000000000000000000 ) ) ;
#147 = APPLICATION_CONTEXT ( 'configuration controlled 3d designs of mechanical parts and assemblies' ) ;
#148 = APPROVAL_STATUS ( 'not_yet_approved' ) ;
#149 = DIRECTION ( 'NONE',  ( 1.000000000000000000, 0.0000000000000000000, 0.0000000000000000000 ) ) ;
#150 = APPLICATION_PROTOCOL_DEFINITION ( 'international standard', 'config_control_design', 1994, #147 ) ;
#151 = LOCAL_TIME ( 9, 14, 37.00000000000000000, #16 ) ;
#152 = CARTESIAN_POINT ( 'NONE',  ( 5.250000000000000000, 0.0000000000000000000, 0.0000000000000000000 ) ) ;
#153 = APPROVAL ( #148, 'UNSPECIFIED' ) ;
#154 =( GEOMETRIC_REPRESENTATION_CONTEXT ( 3 ) GLOBAL_UNCERTAINTY_ASSIGNED_CONTEXT ( ( #28 ) ) GLOBAL_UNIT_ASSIGNED_CONTEXT ( ( #19, #9, #4 ) ) REPRESENTATION_CONTEXT ( 'NONE', 'WORKASPACE' ) );
#155 = APPROVAL_DATE_TIME ( #22, #92 ) ;
#156 = FACE_BOUND ( 'NONE', #31, .T. ) ;
#157 = VERTEX_POINT ( 'NONE', #113 ) ;
#158 = PRODUCT_DEFINITION_SHAPE ( 'NONE', 'NONE',  #38 ) ;
#159 = APPROVAL_PERSON_ORGANIZATION ( #25, #92, #35 ) ;
#160 = CIRCLE ( 'NONE', #104, 10.00000000000000000 ) ;
#161 = CYLINDRICAL_SURFACE ( 'NONE', #3, 10.00000000000000000 ) ;
#162 = DIRECTION ( 'NONE',  ( 0.0000000000000000000, 0.0000000000000000000, 1.000000000000000000 ) ) ;
#163 = DIRECTION ( 'NONE',  ( 0.0000000000000000000, 0.0000000000000000000, 1.000000000000000000 ) ) ;
#164 = PERSON_AND_ORGANIZATION_ROLE ( 'classification_officer' ) ;
#165 = DIRECTION ( 'NONE',  ( 0.0000000000000000000, 0.0000000000000000000, 1.000000000000000000 ) ) ;
#166 = COORDINATED_UNIVERSAL_TIME_OFFSET ( 3, 0, .AHEAD. ) ;
#167 = ORIENTED_EDGE ( 'NONE', *, *, #85, .T. ) ;
#168 = ADVANCED_FACE ( 'NONE', ( #62, #156 ), #57, .F. ) ;
#169 = LOCAL_TIME ( 9, 14, 37.00000000000000000, #37 ) ;
ENDSEC;
END-ISO-10303-21;
