ISO-10303-21;
HEADER;
FILE_DESCRIPTION (( 'STEP AP203' ),
    '1' );
FILE_NAME ('Êðûøêà íà îòâåòâèòåëü Ò-îáðàçíûé âåðòèêàëüíûé TD_38305.STEP',
    '2012-11-15T11:28:04',
    ( 'Àñååâ' ),
    ( '' ),
    'SwSTEP 2.0',
    'SolidWorks 2012',
    '' );
FILE_SCHEMA (( 'CONFIG_CONTROL_DESIGN' ));
ENDSEC;

DATA;
#1 = DIRECTION ( 'NONE',  ( 0.0000000000000000000, 1.000000000000000000, 0.0000000000000000000 ) ) ;
#2 = CARTESIAN_POINT ( 'NONE',  ( 2.653208575337321100E-015, 0.5999999999999999800, 329.0000000000000000 ) ) ;
#3 = DIRECTION ( 'NONE',  ( -0.0000000000000000000, 1.000000000000000000, -0.0000000000000000000 ) ) ;
#4 = CARTESIAN_POINT ( 'NONE',  ( 151.0000000000000000, 0.0000000000000000000, 344.0000000000000000 ) ) ;
#5 = CARTESIAN_POINT ( 'NONE',  ( 151.5999999999999900, -14.00000000000000000, 344.0000000000000000 ) ) ;
#6 = CARTESIAN_POINT ( 'NONE',  ( 151.5999999999999900, 0.0000000000000000000, 0.0000000000000000000 ) ) ;
#7 = DIRECTION ( 'NONE',  ( -1.000000000000000000, 0.0000000000000000000, 0.0000000000000000000 ) ) ;
#8 = DIRECTION ( 'NONE',  ( -0.0000000000000000000, -1.000000000000000000, 0.0000000000000000000 ) ) ;
#9 = UNCERTAINTY_MEASURE_WITH_UNIT (LENGTH_MEASURE( 1.000000000000000100E-005 ), #415, 'distance_accuracy_value', 'NONE');
#10 = MANIFOLD_SOLID_BREP ( 'Âûðåç-Âûòÿíóòü1', #288 ) ;
#11 = ADVANCED_BREP_SHAPE_REPRESENTATION ( '¦¨v°úð ýð þªòõªòøªõû¹ T-þñ¨ð÷ývù òõ¨ªøúðû¹ývù TD_38305', ( #10, #271 ), #265 ) ;
#12 = DIRECTION ( 'NONE',  ( -0.0000000000000000000, 0.0000000000000000000, -1.000000000000000000 ) ) ;
#13 = DIRECTION ( 'NONE',  ( -0.0000000000000000000, 1.000000000000000000, -0.0000000000000000000 ) ) ;
#14 = CARTESIAN_POINT ( 'NONE',  ( -151.0000000000000000, -14.00000000000000000, 0.0000000000000000000 ) ) ;
#15 = PLANE ( 'NONE',  #279 ) ;
#16 = DIRECTION ( 'NONE',  ( 0.0000000000000000000, 0.0000000000000000000, 1.000000000000000000 ) ) ;
#17 = CARTESIAN_POINT ( 'NONE',  ( 151.0000000000000000, 0.0000000000000000000, 0.0000000000000000000 ) ) ;
#18 = PLANE ( 'NONE',  #254 ) ;
#19 = DIRECTION ( 'NONE',  ( 0.0000000000000000000, 0.0000000000000000000, 1.000000000000000000 ) ) ;
#20 = DIRECTION ( 'NONE',  ( -1.000000000000000000, 0.0000000000000000000, 0.0000000000000000000 ) ) ;
#21 = PLANE ( 'NONE',  #253 ) ;
#22 = DIRECTION ( 'NONE',  ( 0.0000000000000000000, 0.0000000000000000000, 1.000000000000000000 ) ) ;
#23 = DIRECTION ( 'NONE',  ( -1.000000000000000000, 0.0000000000000000000, 0.0000000000000000000 ) ) ;
#24 = CARTESIAN_POINT ( 'NONE',  ( -151.0000000000000000, 0.5999999999999999800, 344.0000000000000000 ) ) ;
#25 = CARTESIAN_POINT ( 'NONE',  ( 1.734723475976807100E-015, -14.00099999999999900, 14.99999999999999300 ) ) ;
#26 = DIRECTION ( 'NONE',  ( 0.0000000000000000000, -0.0000000000000000000, 1.000000000000000000 ) ) ;
#27 = CARTESIAN_POINT ( 'NONE',  ( 0.0000000000000000000, 0.0000000000000000000, 0.0000000000000000000 ) ) ;
#28 = PLANE ( 'NONE',  #219 ) ;
#29 = CARTESIAN_POINT ( 'NONE',  ( -151.0000000000000000, -14.00000000000000000, 344.0000000000000000 ) ) ;
#30 = DIRECTION ( 'NONE',  ( 0.0000000000000000000, 0.0000000000000000000, 1.000000000000000000 ) ) ;
#31 = PLANE ( 'NONE',  #222 ) ;
#32 = PLANE ( 'NONE',  #273 ) ;
#33 = DIRECTION ( 'NONE',  ( -0.0000000000000000000, 0.0000000000000000000, -1.000000000000000000 ) ) ;
#34 = DIRECTION ( 'NONE',  ( 1.000000000000000000, 0.0000000000000000000, -0.0000000000000000000 ) ) ;
#35 = CARTESIAN_POINT ( 'NONE',  ( 2.653208575337321100E-015, -14.00099999999999900, 329.0000000000000000 ) ) ;
#36 = DIRECTION ( 'NONE',  ( -1.000000000000000000, 0.0000000000000000000, 0.0000000000000000000 ) ) ;
#37 = DIRECTION ( 'NONE',  ( -0.0000000000000000000, 0.0000000000000000000, -1.000000000000000000 ) ) ;
#38 = DIRECTION ( 'NONE',  ( -0.0000000000000000000, 1.000000000000000000, -0.0000000000000000000 ) ) ;
#39 = PLANE ( 'NONE',  #221 ) ;
#40 = CARTESIAN_POINT ( 'NONE',  ( -151.5999999999999900, 0.0000000000000000000, 344.0000000000000000 ) ) ;
#41 = CARTESIAN_POINT ( 'NONE',  ( -151.0000000000000000, 0.0000000000000000000, 344.0000000000000000 ) ) ;
#42 = DIRECTION ( 'NONE',  ( 0.0000000000000000000, 1.000000000000000000, 0.0000000000000000000 ) ) ;
#43 = DIRECTION ( 'NONE',  ( 0.0000000000000000000, -0.0000000000000000000, 1.000000000000000000 ) ) ;
#44 = CARTESIAN_POINT ( 'NONE',  ( 0.0000000000000000000, 0.0000000000000000000, 344.0000000000000000 ) ) ;
#45 = CARTESIAN_POINT ( 'NONE',  ( -151.0000000000000000, 0.0000000000000000000, 344.0000000000000000 ) ) ;
#46 = DIRECTION ( 'NONE',  ( -1.000000000000000000, 0.0000000000000000000, 0.0000000000000000000 ) ) ;
#47 = DIRECTION ( 'NONE',  ( 0.0000000000000000000, -1.000000000000000000, 0.0000000000000000000 ) ) ;
#48 = DIRECTION ( 'NONE',  ( 0.0000000000000000000, 1.000000000000000000, 0.0000000000000000000 ) ) ;
#49 = PLANE ( 'NONE',  #218 ) ;
#50 = PLANE ( 'NONE',  #224 ) ;
#51 = CARTESIAN_POINT ( 'NONE',  ( 151.5999999999999900, 0.0000000000000000000, 344.0000000000000000 ) ) ;
#52 = DIRECTION ( 'NONE',  ( 1.000000000000000000, 0.0000000000000000000, -0.0000000000000000000 ) ) ;
#53 = CARTESIAN_POINT ( 'NONE',  ( 151.0000000000000000, 0.0000000000000000000, 344.0000000000000000 ) ) ;
#54 = CARTESIAN_POINT ( 'NONE',  ( 151.5999999999999900, -14.00000000000000000, 344.0000000000000000 ) ) ;
#55 = PLANE ( 'NONE',  #223 ) ;
#56 = DIRECTION ( 'NONE',  ( -0.0000000000000000000, 0.0000000000000000000, -1.000000000000000000 ) ) ;
#57 = DIRECTION ( 'NONE',  ( 0.0000000000000000000, -0.0000000000000000000, -1.000000000000000000 ) ) ;
#58 = CARTESIAN_POINT ( 'NONE',  ( 1.734723475976807100E-015, 0.5999999999999999800, 14.99999999999999300 ) ) ;
#59 = DIRECTION ( 'NONE',  ( 1.000000000000000000, 0.0000000000000000000, 0.0000000000000000000 ) ) ;
#60 = CARTESIAN_POINT ( 'NONE',  ( -151.0000000000000000, 0.5999999999999999800, 344.0000000000000000 ) ) ;
#61 = CARTESIAN_POINT ( 'NONE',  ( 151.5999999999999900, -14.00000000000000000, 344.0000000000000000 ) ) ;
#62 = DIRECTION ( 'NONE',  ( -0.0000000000000000000, -0.0000000000000000000, -1.000000000000000000 ) ) ;
#63 = DIRECTION ( 'NONE',  ( 1.000000000000000000, 0.0000000000000000000, 0.0000000000000000000 ) ) ;
#64 = CARTESIAN_POINT ( 'NONE',  ( -151.5999999999999900, 0.0000000000000000000, 344.0000000000000000 ) ) ;
#65 = DIRECTION ( 'NONE',  ( -0.0000000000000000000, -0.0000000000000000000, -1.000000000000000000 ) ) ;
#66 = CARTESIAN_POINT ( 'NONE',  ( -151.0000000000000000, -14.00000000000000000, 344.0000000000000000 ) ) ;
#67 = DIRECTION ( 'NONE',  ( -0.0000000000000000000, -0.0000000000000000000, -1.000000000000000000 ) ) ;
#68 = CARTESIAN_POINT ( 'NONE',  ( -151.5999999999999900, 0.0000000000000000000, 0.0000000000000000000 ) ) ;
#69 = DIRECTION ( 'NONE',  ( 0.0000000000000000000, 1.000000000000000000, 0.0000000000000000000 ) ) ;
#70 = CARTESIAN_POINT ( 'NONE',  ( -151.5999999999999900, -14.00000000000000000, 344.0000000000000000 ) ) ;
#71 = CARTESIAN_POINT ( 'NONE',  ( -151.0000000000000000, 0.0000000000000000000, 344.0000000000000000 ) ) ;
#72 = DIRECTION ( 'NONE',  ( -0.0000000000000000000, -0.0000000000000000000, -1.000000000000000000 ) ) ;
#73 = DIRECTION ( 'NONE',  ( 0.0000000000000000000, 1.000000000000000000, 0.0000000000000000000 ) ) ;
#74 = CARTESIAN_POINT ( 'NONE',  ( -151.0000000000000000, -14.00000000000000000, 0.0000000000000000000 ) ) ;
#75 = DIRECTION ( 'NONE',  ( -1.000000000000000000, 0.0000000000000000000, 0.0000000000000000000 ) ) ;
#76 = CARTESIAN_POINT ( 'NONE',  ( -151.0000000000000000, -14.00000000000000000, 344.0000000000000000 ) ) ;
#77 = DIRECTION ( 'NONE',  ( -0.0000000000000000000, -0.0000000000000000000, -1.000000000000000000 ) ) ;
#78 = DIRECTION ( 'NONE',  ( -1.000000000000000000, 0.0000000000000000000, 0.0000000000000000000 ) ) ;
#79 = CARTESIAN_POINT ( 'NONE',  ( -151.0000000000000000, 0.0000000000000000000, 0.0000000000000000000 ) ) ;
#80 = DIRECTION ( 'NONE',  ( -0.0000000000000000000, 1.000000000000000000, -0.0000000000000000000 ) ) ;
#81 = CARTESIAN_POINT ( 'NONE',  ( -151.0000000000000000, 0.0000000000000000000, 344.0000000000000000 ) ) ;
#82 = DIRECTION ( 'NONE',  ( -0.0000000000000000000, -0.0000000000000000000, -1.000000000000000000 ) ) ;
#83 = DIRECTION ( 'NONE',  ( -0.0000000000000000000, 1.000000000000000000, -0.0000000000000000000 ) ) ;
#84 = CARTESIAN_POINT ( 'NONE',  ( -151.0000000000000000, 0.0000000000000000000, 0.0000000000000000000 ) ) ;
#85 = CARTESIAN_POINT ( 'NONE',  ( -151.0000000000000000, 0.0000000000000000000, 344.0000000000000000 ) ) ;
#86 = CARTESIAN_POINT ( 'NONE',  ( -151.5999999999999900, 0.5999999999999999800, 344.0000000000000000 ) ) ;
#87 = CARTESIAN_POINT ( 'NONE',  ( 2.653208575337321100E-015, 0.0000000000000000000, 329.0000000000000000 ) ) ;
#88 = DIRECTION ( 'NONE',  ( -0.0000000000000000000, -1.000000000000000000, -0.0000000000000000000 ) ) ;
#89 = DIRECTION ( 'NONE',  ( 0.0000000000000000000, 0.0000000000000000000, 1.000000000000000000 ) ) ;
#90 = CARTESIAN_POINT ( 'NONE',  ( 1.734723475976807100E-015, 0.0000000000000000000, 14.99999999999999300 ) ) ;
#91 = DIRECTION ( 'NONE',  ( -0.0000000000000000000, -1.000000000000000000, -0.0000000000000000000 ) ) ;
#92 = DIRECTION ( 'NONE',  ( 0.0000000000000000000, 0.0000000000000000000, 1.000000000000000000 ) ) ;
#93 = DIRECTION ( 'NONE',  ( 1.000000000000000000, 0.0000000000000000000, 0.0000000000000000000 ) ) ;
#94 = CARTESIAN_POINT ( 'NONE',  ( -151.0000000000000000, -14.00000000000000000, 344.0000000000000000 ) ) ;
#95 = DIRECTION ( 'NONE',  ( 1.000000000000000000, 0.0000000000000000000, 0.0000000000000000000 ) ) ;
#96 = CARTESIAN_POINT ( 'NONE',  ( 151.5999999999999900, 0.5999999999999999800, 344.0000000000000000 ) ) ;
#97 = DIRECTION ( 'NONE',  ( -0.0000000000000000000, -0.0000000000000000000, -1.000000000000000000 ) ) ;
#98 = CARTESIAN_POINT ( 'NONE',  ( 151.5999999999999900, -14.00000000000000000, 0.0000000000000000000 ) ) ;
#99 = DIRECTION ( 'NONE',  ( -1.000000000000000000, 0.0000000000000000000, 0.0000000000000000000 ) ) ;
#100 = CARTESIAN_POINT ( 'NONE',  ( 151.0000000000000000, 0.0000000000000000000, 0.0000000000000000000 ) ) ;
#101 = DIRECTION ( 'NONE',  ( 0.0000000000000000000, -1.000000000000000000, 0.0000000000000000000 ) ) ;
#102 = CARTESIAN_POINT ( 'NONE',  ( 151.0000000000000000, -14.00000000000000000, 344.0000000000000000 ) ) ;
#103 = DIRECTION ( 'NONE',  ( -0.0000000000000000000, -0.0000000000000000000, -1.000000000000000000 ) ) ;
#104 = CARTESIAN_POINT ( 'NONE',  ( 151.0000000000000000, 0.0000000000000000000, 344.0000000000000000 ) ) ;
#105 = CARTESIAN_POINT ( 'NONE',  ( 151.0000000000000000, 0.0000000000000000000, 344.0000000000000000 ) ) ;
#106 = DIRECTION ( 'NONE',  ( 0.0000000000000000000, -1.000000000000000000, 0.0000000000000000000 ) ) ;
#107 = CARTESIAN_POINT ( 'NONE',  ( 151.5999999999999900, -14.00000000000000000, 0.0000000000000000000 ) ) ;
#108 = CARTESIAN_POINT ( 'NONE',  ( -151.0000000000000000, 0.0000000000000000000, 0.0000000000000000000 ) ) ;
#109 = CARTESIAN_POINT ( 'NONE',  ( 151.0000000000000000, -14.00000000000000000, 344.0000000000000000 ) ) ;
#110 = CARTESIAN_POINT ( 'NONE',  ( -151.0000000000000000, 0.0000000000000000000, 344.0000000000000000 ) ) ;
#111 = CARTESIAN_POINT ( 'NONE',  ( -151.5999999999999900, -14.00000000000000000, 344.0000000000000000 ) ) ;
#112 = CARTESIAN_POINT ( 'NONE',  ( 2.653208575337321100E-015, 0.5999999999999999800, 326.5000000000000000 ) ) ;
#113 = CARTESIAN_POINT ( 'NONE',  ( 2.653208575337321100E-015, 0.0000000000000000000, 331.5000000000000000 ) ) ;
#114 = CARTESIAN_POINT ( 'NONE',  ( 0.0000000000000000000, 0.0000000000000000000, 0.0000000000000000000 ) ) ;
#115 = CARTESIAN_POINT ( 'NONE',  ( 1.734723475976807100E-015, 0.5999999999999999800, 17.49999999999999600 ) ) ;
#116 = CARTESIAN_POINT ( 'NONE',  ( 1.734723475976807100E-015, 0.0000000000000000000, 17.49999999999999600 ) ) ;
#117 = DIRECTION ( 'NONE',  ( 0.0000000000000000000, 0.0000000000000000000, 1.000000000000000000 ) ) ;
#118 = DIRECTION ( 'NONE',  ( 0.0000000000000000000, 0.0000000000000000000, 1.000000000000000000 ) ) ;
#119 = DIRECTION ( 'NONE',  ( -0.0000000000000000000, -1.000000000000000000, 0.0000000000000000000 ) ) ;
#120 = CARTESIAN_POINT ( 'NONE',  ( -151.5999999999999900, 0.5999999999999999800, 344.0000000000000000 ) ) ;
#121 = CARTESIAN_POINT ( 'NONE',  ( -151.0000000000000000, 0.5999999999999999800, 0.0000000000000000000 ) ) ;
#122 = PRODUCT ( 'Êðûøêà íà îòâåòâèòåëü Ò-îáðàçíûé âåðòèêàëüíûé TD_38305', 'Êðûøêà íà îòâåòâèòåëü Ò-îáðàçíûé âåðòèêàëüíûé TD_38305', '', ( #421 ) ) ;
#123 = PERSON ( 'UNSPECIFIED', 'UNSPECIFIED', 'UNSPECIFIED', ('UNSPECIFIED'), ('UNSPECIFIED'), ('UNSPECIFIED') ) ;
#124 = EDGE_LOOP ( 'NONE', ( #307 ) ) ;
#125 = DESIGN_CONTEXT ( 'detailed design', #423, 'design' ) ;
#126 = PRODUCT_DEFINITION_SHAPE ( 'NONE', 'NONE',  #278 ) ;
#127 = ADVANCED_FACE ( 'NONE', ( #285 ), #50, .T. ) ;
#128 = ADVANCED_FACE ( 'NONE', ( #147 ), #55, .T. ) ;
#129 = ADVANCED_FACE ( 'NONE', ( #148 ), #31, .F. ) ;
#130 = ADVANCED_FACE ( 'NONE', ( #150 ), #39, .F. ) ;
#131 = ADVANCED_FACE ( 'NONE', ( #151, #154 ), #156, .F. ) ;
#132 = ADVANCED_FACE ( 'NONE', ( #149, #157, #152 ), #28, .F. ) ;
#133 = ADVANCED_FACE ( 'NONE', ( #153 ), #49, .F. ) ;
#134 = ADVANCED_FACE ( 'NONE', ( #155 ), #18, .T. ) ;
#135 = ADVANCED_FACE ( 'NONE', ( #159, #162, #160 ), #21, .T. ) ;
#136 = ADVANCED_FACE ( 'NONE', ( #161 ), #15, .T. ) ;
#137 = ADVANCED_FACE ( 'NONE', ( #158, #166 ), #168, .F. ) ;
#138 = ADVANCED_FACE ( 'NONE', ( #163 ), #32, .T. ) ;
#139 = VERTEX_POINT ( 'NONE', #14 ) ;
#140 = VERTEX_POINT ( 'NONE', #217 ) ;
#141 = VERTEX_POINT ( 'NONE', #213 ) ;
#142 = VERTEX_POINT ( 'NONE', #214 ) ;
#143 = VERTEX_POINT ( 'NONE', #216 ) ;
#144 = VERTEX_POINT ( 'NONE', #210 ) ;
#145 = VERTEX_POINT ( 'NONE', #17 ) ;
#146 = VERTEX_POINT ( 'NONE', #209 ) ;
#147 = FACE_OUTER_BOUND ( 'NONE', #292, .T. ) ;
#148 = FACE_OUTER_BOUND ( 'NONE', #290, .T. ) ;
#149 = FACE_BOUND ( 'NONE', #283, .T. ) ;
#150 = FACE_OUTER_BOUND ( 'NONE', #291, .T. ) ;
#151 = FACE_OUTER_BOUND ( 'NONE', #299, .T. ) ;
#152 = FACE_OUTER_BOUND ( 'NONE', #297, .T. ) ;
#153 = FACE_OUTER_BOUND ( 'NONE', #287, .T. ) ;
#154 = FACE_OUTER_BOUND ( 'NONE', #295, .T. ) ;
#155 = FACE_OUTER_BOUND ( 'NONE', #282, .T. ) ;
#156 = CYLINDRICAL_SURFACE ( 'NONE', #220, 2.500000000000002200 ) ;
#157 = FACE_BOUND ( 'NONE', #300, .T. ) ;
#158 = FACE_OUTER_BOUND ( 'NONE', #294, .T. ) ;
#159 = FACE_BOUND ( 'NONE', #124, .T. ) ;
#160 = FACE_OUTER_BOUND ( 'NONE', #289, .T. ) ;
#161 = FACE_OUTER_BOUND ( 'NONE', #296, .T. ) ;
#162 = FACE_BOUND ( 'NONE', #284, .T. ) ;
#163 = FACE_OUTER_BOUND ( 'NONE', #298, .T. ) ;
#164 = LINE ( 'NONE', #6, #173 ) ;
#165 = LINE ( 'NONE', #215, #167 ) ;
#166 = FACE_OUTER_BOUND ( 'NONE', #293, .T. ) ;
#167 = VECTOR ( 'NONE', #119, 1000.000000000000000 ) ;
#168 = CYLINDRICAL_SURFACE ( 'NONE', #274, 2.500000000000002200 ) ;
#169 = LINE ( 'NONE', #60, #181 ) ;
#170 = CIRCLE ( 'NONE', #280, 2.500000000000002200 ) ;
#171 = VECTOR ( 'NONE', #7, 1000.000000000000000 ) ;
#172 = LINE ( 'NONE', #5, #171 ) ;
#173 = VECTOR ( 'NONE', #8, 1000.000000000000000 ) ;
#174 = LINE ( 'NONE', #121, #178 ) ;
#175 = LINE ( 'NONE', #120, #177 ) ;
#176 = CIRCLE ( 'NONE', #266, 2.500000000000002200 ) ;
#177 = VECTOR ( 'NONE', #62, 1000.000000000000000 ) ;
#178 = VECTOR ( 'NONE', #59, 1000.000000000000000 ) ;
#179 = LINE ( 'NONE', #4, #183 ) ;
#180 = LINE ( 'NONE', #61, #185 ) ;
#181 = VECTOR ( 'NONE', #63, 1000.000000000000000 ) ;
#182 = LINE ( 'NONE', #64, #191 ) ;
#183 = VECTOR ( 'NONE', #65, 1000.000000000000000 ) ;
#184 = LINE ( 'NONE', #68, #187 ) ;
#185 = VECTOR ( 'NONE', #67, 1000.000000000000000 ) ;
#186 = LINE ( 'NONE', #70, #189 ) ;
#187 = VECTOR ( 'NONE', #69, 1000.000000000000000 ) ;
#188 = LINE ( 'NONE', #66, #197 ) ;
#189 = VECTOR ( 'NONE', #72, 1000.000000000000000 ) ;
#190 = LINE ( 'NONE', #74, #193 ) ;
#191 = VECTOR ( 'NONE', #73, 1000.000000000000000 ) ;
#192 = LINE ( 'NONE', #76, #195 ) ;
#193 = VECTOR ( 'NONE', #75, 1000.000000000000000 ) ;
#194 = LINE ( 'NONE', #71, #202 ) ;
#195 = VECTOR ( 'NONE', #77, 1000.000000000000000 ) ;
#196 = LINE ( 'NONE', #79, #199 ) ;
#197 = VECTOR ( 'NONE', #78, 1000.000000000000000 ) ;
#198 = LINE ( 'NONE', #81, #201 ) ;
#199 = VECTOR ( 'NONE', #80, 1000.000000000000000 ) ;
#200 = CIRCLE ( 'NONE', #276, 2.500000000000002200 ) ;
#201 = VECTOR ( 'NONE', #82, 1000.000000000000000 ) ;
#202 = VECTOR ( 'NONE', #83, 1000.000000000000000 ) ;
#203 = LINE ( 'NONE', #84, #207 ) ;
#204 = LINE ( 'NONE', #85, #206 ) ;
#205 = CIRCLE ( 'NONE', #281, 2.500000000000002200 ) ;
#206 = VECTOR ( 'NONE', #95, 1000.000000000000000 ) ;
#207 = VECTOR ( 'NONE', #93, 1000.000000000000000 ) ;
#208 = LINE ( 'NONE', #96, #365 ) ;
#209 = CARTESIAN_POINT ( 'NONE',  ( 151.0000000000000000, -14.00000000000000000, 0.0000000000000000000 ) ) ;
#210 = CARTESIAN_POINT ( 'NONE',  ( 151.5999999999999900, -14.00000000000000000, 344.0000000000000000 ) ) ;
#211 = DIRECTION ( 'NONE',  ( 0.0000000000000000000, -0.0000000000000000000, -1.000000000000000000 ) ) ;
#212 = DIRECTION ( 'NONE',  ( 0.0000000000000000000, -1.000000000000000000, 0.0000000000000000000 ) ) ;
#213 = CARTESIAN_POINT ( 'NONE',  ( -151.5999999999999900, 0.5999999999999999800, 0.0000000000000000000 ) ) ;
#214 = CARTESIAN_POINT ( 'NONE',  ( -151.5999999999999900, -14.00000000000000000, 0.0000000000000000000 ) ) ;
#215 = CARTESIAN_POINT ( 'NONE',  ( 151.5999999999999900, 0.0000000000000000000, 344.0000000000000000 ) ) ;
#216 = CARTESIAN_POINT ( 'NONE',  ( 151.5999999999999900, 0.5999999999999999800, 0.0000000000000000000 ) ) ;
#217 = CARTESIAN_POINT ( 'NONE',  ( 151.5999999999999900, 0.5999999999999999800, 344.0000000000000000 ) ) ;
#218 = AXIS2_PLACEMENT_3D ( 'NONE', #45, #46, #16 ) ;
#219 = AXIS2_PLACEMENT_3D ( 'NONE', #41, #42, #43 ) ;
#220 = AXIS2_PLACEMENT_3D ( 'NONE', #35, #38, #30 ) ;
#221 = AXIS2_PLACEMENT_3D ( 'NONE', #44, #37, #36 ) ;
#222 = AXIS2_PLACEMENT_3D ( 'NONE', #53, #34, #33 ) ;
#223 = AXIS2_PLACEMENT_3D ( 'NONE', #54, #47, #57 ) ;
#224 = AXIS2_PLACEMENT_3D ( 'NONE', #51, #52, #56 ) ;
#225 = EDGE_CURVE ( 'NONE', #144, #359, #172, .T. ) ;
#226 = EDGE_CURVE ( 'NONE', #143, #360, #164, .T. ) ;
#227 = EDGE_CURVE ( 'NONE', #140, #144, #165, .T. ) ;
#228 = EDGE_CURVE ( 'NONE', #374, #374, #170, .T. ) ;
#229 = EDGE_CURVE ( 'NONE', #378, #378, #176, .T. ) ;
#230 = EDGE_CURVE ( 'NONE', #141, #143, #174, .T. ) ;
#231 = EDGE_CURVE ( 'NONE', #364, #141, #175, .T. ) ;
#232 = EDGE_CURVE ( 'NONE', #364, #140, #169, .T. ) ;
#233 = EDGE_CURVE ( 'NONE', #357, #145, #179, .T. ) ;
#234 = EDGE_CURVE ( 'NONE', #144, #360, #180, .T. ) ;
#235 = EDGE_CURVE ( 'NONE', #142, #141, #184, .T. ) ;
#236 = EDGE_CURVE ( 'NONE', #363, #142, #186, .T. ) ;
#237 = EDGE_CURVE ( 'NONE', #363, #364, #182, .T. ) ;
#238 = EDGE_CURVE ( 'NONE', #139, #142, #190, .T. ) ;
#239 = EDGE_CURVE ( 'NONE', #362, #139, #192, .T. ) ;
#240 = EDGE_CURVE ( 'NONE', #362, #363, #188, .T. ) ;
#241 = EDGE_CURVE ( 'NONE', #139, #358, #196, .T. ) ;
#242 = EDGE_CURVE ( 'NONE', #361, #358, #198, .T. ) ;
#243 = EDGE_CURVE ( 'NONE', #362, #361, #194, .T. ) ;
#244 = EDGE_CURVE ( 'NONE', #377, #377, #200, .T. ) ;
#245 = EDGE_CURVE ( 'NONE', #376, #376, #205, .T. ) ;
#246 = EDGE_CURVE ( 'NONE', #358, #145, #203, .T. ) ;
#247 = EDGE_CURVE ( 'NONE', #361, #357, #204, .T. ) ;
#248 = EDGE_CURVE ( 'NONE', #140, #143, #208, .T. ) ;
#249 = EDGE_CURVE ( 'NONE', #360, #146, #367, .T. ) ;
#250 = EDGE_CURVE ( 'NONE', #145, #146, #366, .T. ) ;
#251 = EDGE_CURVE ( 'NONE', #359, #146, #369, .T. ) ;
#252 = EDGE_CURVE ( 'NONE', #357, #359, #371, .T. ) ;
#253 = AXIS2_PLACEMENT_3D ( 'NONE', #24, #48, #26 ) ;
#254 = AXIS2_PLACEMENT_3D ( 'NONE', #40, #20, #19 ) ;
#255 = SECURITY_CLASSIFICATION ( '', '', #433 ) ;
#256 = CC_DESIGN_PERSON_AND_ORGANIZATION_ASSIGNMENT ( #401, #432, ( #267 ) ) ;
#257 = APPROVAL ( #436, 'UNSPECIFIED' ) ;
#258 = CC_DESIGN_APPROVAL ( #262, ( #267 ) ) ;
#259 = CC_DESIGN_SECURITY_CLASSIFICATION ( #255, ( #267 ) ) ;
#260 = CC_DESIGN_DATE_AND_TIME_ASSIGNMENT ( #406, #435, ( #255 ) ) ;
#261 = PRODUCT_RELATED_PRODUCT_CATEGORY ( 'detail', '', ( #122 ) ) ;
#262 = APPROVAL ( #429, 'UNSPECIFIED' ) ;
#263 = CC_DESIGN_APPROVAL ( #257, ( #255 ) ) ;
#264 = CC_DESIGN_DATE_AND_TIME_ASSIGNMENT ( #392, #428, ( #278 ) ) ;
#265 =( GEOMETRIC_REPRESENTATION_CONTEXT ( 3 ) GLOBAL_UNCERTAINTY_ASSIGNED_CONTEXT ( ( #9 ) ) GLOBAL_UNIT_ASSIGNED_CONTEXT ( ( #415, #416, #417 ) ) REPRESENTATION_CONTEXT ( 'NONE', 'WORKASPACE' ) );
#266 = AXIS2_PLACEMENT_3D ( 'NONE', #58, #1, #118 ) ;
#267 = PRODUCT_DEFINITION_FORMATION_WITH_SPECIFIED_SOURCE ( 'ANY', '', #122, .NOT_KNOWN. ) ;
#268 = CC_DESIGN_PERSON_AND_ORGANIZATION_ASSIGNMENT ( #388, #427, ( #278 ) ) ;
#269 = CC_DESIGN_APPROVAL ( #270, ( #278 ) ) ;
#270 = APPROVAL ( #425, 'UNSPECIFIED' ) ;
#271 = AXIS2_PLACEMENT_3D ( 'NONE', #114, #117, #420 ) ;
#272 = CC_DESIGN_PERSON_AND_ORGANIZATION_ASSIGNMENT ( #380, #422, ( #122 ) ) ;
#273 = AXIS2_PLACEMENT_3D ( 'NONE', #29, #212, #211 ) ;
#274 = AXIS2_PLACEMENT_3D ( 'NONE', #25, #13, #22 ) ;
#275 = CC_DESIGN_PERSON_AND_ORGANIZATION_ASSIGNMENT ( #402, #434, ( #255 ) ) ;
#276 = AXIS2_PLACEMENT_3D ( 'NONE', #87, #88, #89 ) ;
#277 = CC_DESIGN_PERSON_AND_ORGANIZATION_ASSIGNMENT ( #400, #431, ( #267 ) ) ;
#278 = PRODUCT_DEFINITION ( 'UNKNOWN', '', #267, #125 ) ;
#279 = AXIS2_PLACEMENT_3D ( 'NONE', #27, #12, #23 ) ;
#280 = AXIS2_PLACEMENT_3D ( 'NONE', #2, #3, #414 ) ;
#281 = AXIS2_PLACEMENT_3D ( 'NONE', #90, #91, #92 ) ;
#282 = EDGE_LOOP ( 'NONE', ( #312, #350, #309, #315 ) ) ;
#283 = EDGE_LOOP ( 'NONE', ( #323 ) ) ;
#284 = EDGE_LOOP ( 'NONE', ( #308 ) ) ;
#285 = FACE_OUTER_BOUND ( 'NONE', #286, .T. ) ;
#286 = EDGE_LOOP ( 'NONE', ( #317, #311, #306, #330 ) ) ;
#287 = EDGE_LOOP ( 'NONE', ( #316, #343, #328, #320 ) ) ;
#288 = CLOSED_SHELL ( 'NONE', ( #129, #128, #127, #135, #134, #138, #133, #132, #130, #136, #137, #131 ) ) ;
#289 = EDGE_LOOP ( 'NONE', ( #310, #313, #349, #314 ) ) ;
#290 = EDGE_LOOP ( 'NONE', ( #302, #344, #303, #301 ) ) ;
#291 = EDGE_LOOP ( 'NONE', ( #327, #332, #334, #348, #329, #338, #351, #337 ) ) ;
#292 = EDGE_LOOP ( 'NONE', ( #304, #347, #305, #345 ) ) ;
#293 = EDGE_LOOP ( 'NONE', ( #354 ) ) ;
#294 = EDGE_LOOP ( 'NONE', ( #339 ) ) ;
#295 = EDGE_LOOP ( 'NONE', ( #356 ) ) ;
#296 = EDGE_LOOP ( 'NONE', ( #335, #336, #353, #355, #342, #341, #352, #340 ) ) ;
#297 = EDGE_LOOP ( 'NONE', ( #322, #324, #325, #333 ) ) ;
#298 = EDGE_LOOP ( 'NONE', ( #331, #318, #319, #321 ) ) ;
#299 = EDGE_LOOP ( 'NONE', ( #346 ) ) ;
#300 = EDGE_LOOP ( 'NONE', ( #326 ) ) ;
#301 = ORIENTED_EDGE ( 'NONE', *, *, #233, .T. ) ;
#302 = ORIENTED_EDGE ( 'NONE', *, *, #250, .T. ) ;
#303 = ORIENTED_EDGE ( 'NONE', *, *, #252, .F. ) ;
#304 = ORIENTED_EDGE ( 'NONE', *, *, #249, .F. ) ;
#305 = ORIENTED_EDGE ( 'NONE', *, *, #225, .T. ) ;
#306 = ORIENTED_EDGE ( 'NONE', *, *, #227, .T. ) ;
#307 = ORIENTED_EDGE ( 'NONE', *, *, #228, .F. ) ;
#308 = ORIENTED_EDGE ( 'NONE', *, *, #229, .F. ) ;
#309 = ORIENTED_EDGE ( 'NONE', *, *, #237, .T. ) ;
#310 = ORIENTED_EDGE ( 'NONE', *, *, #230, .F. ) ;
#311 = ORIENTED_EDGE ( 'NONE', *, *, #248, .F. ) ;
#312 = ORIENTED_EDGE ( 'NONE', *, *, #235, .F. ) ;
#313 = ORIENTED_EDGE ( 'NONE', *, *, #231, .F. ) ;
#314 = ORIENTED_EDGE ( 'NONE', *, *, #248, .T. ) ;
#315 = ORIENTED_EDGE ( 'NONE', *, *, #231, .T. ) ;
#316 = ORIENTED_EDGE ( 'NONE', *, *, #241, .T. ) ;
#317 = ORIENTED_EDGE ( 'NONE', *, *, #226, .F. ) ;
#318 = ORIENTED_EDGE ( 'NONE', *, *, #239, .F. ) ;
#319 = ORIENTED_EDGE ( 'NONE', *, *, #240, .T. ) ;
#320 = ORIENTED_EDGE ( 'NONE', *, *, #239, .T. ) ;
#321 = ORIENTED_EDGE ( 'NONE', *, *, #236, .T. ) ;
#322 = ORIENTED_EDGE ( 'NONE', *, *, #246, .T. ) ;
#323 = ORIENTED_EDGE ( 'NONE', *, *, #244, .F. ) ;
#324 = ORIENTED_EDGE ( 'NONE', *, *, #233, .F. ) ;
#325 = ORIENTED_EDGE ( 'NONE', *, *, #247, .F. ) ;
#326 = ORIENTED_EDGE ( 'NONE', *, *, #245, .F. ) ;
#327 = ORIENTED_EDGE ( 'NONE', *, *, #252, .T. ) ;
#328 = ORIENTED_EDGE ( 'NONE', *, *, #243, .F. ) ;
#329 = ORIENTED_EDGE ( 'NONE', *, *, #237, .F. ) ;
#330 = ORIENTED_EDGE ( 'NONE', *, *, #234, .T. ) ;
#331 = ORIENTED_EDGE ( 'NONE', *, *, #238, .F. ) ;
#332 = ORIENTED_EDGE ( 'NONE', *, *, #225, .F. ) ;
#333 = ORIENTED_EDGE ( 'NONE', *, *, #242, .T. ) ;
#334 = ORIENTED_EDGE ( 'NONE', *, *, #227, .F. ) ;
#335 = ORIENTED_EDGE ( 'NONE', *, *, #250, .F. ) ;
#336 = ORIENTED_EDGE ( 'NONE', *, *, #246, .F. ) ;
#337 = ORIENTED_EDGE ( 'NONE', *, *, #247, .T. ) ;
#338 = ORIENTED_EDGE ( 'NONE', *, *, #240, .F. ) ;
#339 = ORIENTED_EDGE ( 'NONE', *, *, #229, .T. ) ;
#340 = ORIENTED_EDGE ( 'NONE', *, *, #249, .T. ) ;
#341 = ORIENTED_EDGE ( 'NONE', *, *, #230, .T. ) ;
#342 = ORIENTED_EDGE ( 'NONE', *, *, #235, .T. ) ;
#343 = ORIENTED_EDGE ( 'NONE', *, *, #242, .F. ) ;
#344 = ORIENTED_EDGE ( 'NONE', *, *, #251, .F. ) ;
#345 = ORIENTED_EDGE ( 'NONE', *, *, #251, .T. ) ;
#346 = ORIENTED_EDGE ( 'NONE', *, *, #228, .T. ) ;
#347 = ORIENTED_EDGE ( 'NONE', *, *, #234, .F. ) ;
#348 = ORIENTED_EDGE ( 'NONE', *, *, #232, .F. ) ;
#349 = ORIENTED_EDGE ( 'NONE', *, *, #232, .T. ) ;
#350 = ORIENTED_EDGE ( 'NONE', *, *, #236, .F. ) ;
#351 = ORIENTED_EDGE ( 'NONE', *, *, #243, .T. ) ;
#352 = ORIENTED_EDGE ( 'NONE', *, *, #226, .T. ) ;
#353 = ORIENTED_EDGE ( 'NONE', *, *, #241, .F. ) ;
#354 = ORIENTED_EDGE ( 'NONE', *, *, #245, .T. ) ;
#355 = ORIENTED_EDGE ( 'NONE', *, *, #238, .T. ) ;
#356 = ORIENTED_EDGE ( 'NONE', *, *, #244, .T. ) ;
#357 = VERTEX_POINT ( 'NONE', #105 ) ;
#358 = VERTEX_POINT ( 'NONE', #108 ) ;
#359 = VERTEX_POINT ( 'NONE', #109 ) ;
#360 = VERTEX_POINT ( 'NONE', #107 ) ;
#361 = VERTEX_POINT ( 'NONE', #110 ) ;
#362 = VERTEX_POINT ( 'NONE', #94 ) ;
#363 = VERTEX_POINT ( 'NONE', #111 ) ;
#364 = VERTEX_POINT ( 'NONE', #86 ) ;
#365 = VECTOR ( 'NONE', #97, 1000.000000000000000 ) ;
#366 = LINE ( 'NONE', #100, #370 ) ;
#367 = LINE ( 'NONE', #98, #368 ) ;
#368 = VECTOR ( 'NONE', #99, 1000.000000000000000 ) ;
#369 = LINE ( 'NONE', #102, #372 ) ;
#370 = VECTOR ( 'NONE', #101, 1000.000000000000000 ) ;
#371 = LINE ( 'NONE', #104, #373 ) ;
#372 = VECTOR ( 'NONE', #103, 1000.000000000000000 ) ;
#373 = VECTOR ( 'NONE', #106, 1000.000000000000000 ) ;
#374 = VERTEX_POINT ( 'NONE', #112 ) ;
#375 = SHAPE_DEFINITION_REPRESENTATION ( #126, #11 ) ;
#376 = VERTEX_POINT ( 'NONE', #116 ) ;
#377 = VERTEX_POINT ( 'NONE', #113 ) ;
#378 = VERTEX_POINT ( 'NONE', #115 ) ;
#379 = ORGANIZATION ( 'UNSPECIFIED', 'UNSPECIFIED', '' ) ;
#380 = PERSON_AND_ORGANIZATION ( #123, #379 ) ;
#381 = PERSON_AND_ORGANIZATION ( #123, #379 ) ;
#382 = APPROVAL_PERSON_ORGANIZATION ( #381, #270, #426 ) ;
#383 = COORDINATED_UNIVERSAL_TIME_OFFSET ( 4, 0, .AHEAD. ) ;
#384 = LOCAL_TIME ( 15, 28, 4.000000000000000000, #383 ) ;
#385 = CALENDAR_DATE ( 2012, 15, 11 ) ;
#386 = DATE_AND_TIME ( #385, #384 ) ;
#387 = APPROVAL_DATE_TIME ( #386, #270 ) ;
#388 = PERSON_AND_ORGANIZATION ( #123, #379 ) ;
#389 = COORDINATED_UNIVERSAL_TIME_OFFSET ( 4, 0, .AHEAD. ) ;
#390 = LOCAL_TIME ( 15, 28, 4.000000000000000000, #389 ) ;
#391 = CALENDAR_DATE ( 2012, 15, 11 ) ;
#392 = DATE_AND_TIME ( #391, #390 ) ;
#393 = PERSON_AND_ORGANIZATION ( #123, #379 ) ;
#394 = APPROVAL_PERSON_ORGANIZATION ( #393, #262, #430 ) ;
#395 = COORDINATED_UNIVERSAL_TIME_OFFSET ( 4, 0, .AHEAD. ) ;
#396 = LOCAL_TIME ( 15, 28, 4.000000000000000000, #395 ) ;
#397 = CALENDAR_DATE ( 2012, 15, 11 ) ;
#398 = DATE_AND_TIME ( #397, #396 ) ;
#399 = APPROVAL_DATE_TIME ( #398, #262 ) ;
#400 = PERSON_AND_ORGANIZATION ( #123, #379 ) ;
#401 = PERSON_AND_ORGANIZATION ( #123, #379 ) ;
#402 = PERSON_AND_ORGANIZATION ( #123, #379 ) ;
#403 = COORDINATED_UNIVERSAL_TIME_OFFSET ( 4, 0, .AHEAD. ) ;
#404 = LOCAL_TIME ( 15, 28, 4.000000000000000000, #403 ) ;
#405 = CALENDAR_DATE ( 2012, 15, 11 ) ;
#406 = DATE_AND_TIME ( #405, #404 ) ;
#407 = PERSON_AND_ORGANIZATION ( #123, #379 ) ;
#408 = APPROVAL_PERSON_ORGANIZATION ( #407, #257, #437 ) ;
#409 = COORDINATED_UNIVERSAL_TIME_OFFSET ( 4, 0, .AHEAD. ) ;
#410 = LOCAL_TIME ( 15, 28, 4.000000000000000000, #409 ) ;
#411 = CALENDAR_DATE ( 2012, 15, 11 ) ;
#412 = DATE_AND_TIME ( #411, #410 ) ;
#413 = APPROVAL_DATE_TIME ( #412, #257 ) ;
#414 = DIRECTION ( 'NONE',  ( 0.0000000000000000000, 0.0000000000000000000, -1.000000000000000000 ) ) ;
#415 =( LENGTH_UNIT ( ) NAMED_UNIT ( * ) SI_UNIT ( .MILLI., .METRE. ) );
#416 =( NAMED_UNIT ( * ) PLANE_ANGLE_UNIT ( ) SI_UNIT ( $, .RADIAN. ) );
#417 =( NAMED_UNIT ( * ) SI_UNIT ( $, .STERADIAN. ) SOLID_ANGLE_UNIT ( ) );
#418 = APPLICATION_PROTOCOL_DEFINITION ( 'international standard', 'config_control_design', 1994, #419 ) ;
#419 = APPLICATION_CONTEXT ( 'configuration controlled 3d designs of mechanical parts and assemblies' ) ;
#420 = DIRECTION ( 'NONE',  ( 1.000000000000000000, 0.0000000000000000000, 0.0000000000000000000 ) ) ;
#421 = MECHANICAL_CONTEXT ( 'NONE', #419, 'mechanical' ) ;
#422 = PERSON_AND_ORGANIZATION_ROLE ( 'design_owner' ) ;
#423 = APPLICATION_CONTEXT ( 'configuration controlled 3d designs of mechanical parts and assemblies' ) ;
#424 = APPLICATION_PROTOCOL_DEFINITION ( 'international standard', 'config_control_design', 1994, #423 ) ;
#425 = APPROVAL_STATUS ( 'not_yet_approved' ) ;
#426 = APPROVAL_ROLE ( '' ) ;
#427 = PERSON_AND_ORGANIZATION_ROLE ( 'creator' ) ;
#428 = DATE_TIME_ROLE ( 'creation_date' ) ;
#429 = APPROVAL_STATUS ( 'not_yet_approved' ) ;
#430 = APPROVAL_ROLE ( '' ) ;
#431 = PERSON_AND_ORGANIZATION_ROLE ( 'creator' ) ;
#432 = PERSON_AND_ORGANIZATION_ROLE ( 'design_supplier' ) ;
#433 = SECURITY_CLASSIFICATION_LEVEL ( 'unclassified' ) ;
#434 = PERSON_AND_ORGANIZATION_ROLE ( 'classification_officer' ) ;
#435 = DATE_TIME_ROLE ( 'classification_date' ) ;
#436 = APPROVAL_STATUS ( 'not_yet_approved' ) ;
#437 = APPROVAL_ROLE ( '' ) ;
ENDSEC;
END-ISO-10303-21;
