ISO-10303-21;
HEADER;
FILE_DESCRIPTION (( 'STEP AP203' ),
    '1' );
FILE_NAME ('Êðûøêà íà îòâåòâèòåëü Ò-îáðàçíûé âåðòèêàëüíûé áîêîâîé TDS_38326.STEP',
    '2012-11-09T08:44:37',
    ( 'Àñååâ' ),
    ( '' ),
    'SwSTEP 2.0',
    'SolidWorks 2012',
    '' );
FILE_SCHEMA (( 'CONFIG_CONTROL_DESIGN' ));
ENDSEC;

DATA;
#1 = CARTESIAN_POINT ( 'NONE',  ( 0.0000000000000000000, 0.0000000000000000000, 0.0000000000000000000 ) ) ;
#2 = PLANE ( 'NONE',  #206 ) ;
#3 = CARTESIAN_POINT ( 'NONE',  ( -201.8000000000000100, 0.0000000000000000000, 660.0000000000000000 ) ) ;
#4 = DIRECTION ( 'NONE',  ( -0.0000000000000000000, 1.000000000000000000, -0.0000000000000000000 ) ) ;
#5 = CARTESIAN_POINT ( 'NONE',  ( 1.734723475976807100E-015, -14.00099999999999900, 14.99999999999999300 ) ) ;
#6 = DIRECTION ( 'NONE',  ( 0.0000000000000000000, 0.0000000000000000000, 1.000000000000000000 ) ) ;
#7 = CARTESIAN_POINT ( 'NONE',  ( 2.653208575337321500E-015, -14.00099999999999900, 645.0000000000000000 ) ) ;
#8 = DIRECTION ( 'NONE',  ( 0.0000000000000000000, -0.0000000000000000000, -1.000000000000000000 ) ) ;
#9 = DIRECTION ( 'NONE',  ( 0.0000000000000000000, -1.000000000000000000, 0.0000000000000000000 ) ) ;
#10 = DIRECTION ( 'NONE',  ( -0.0000000000000000000, 1.000000000000000000, -0.0000000000000000000 ) ) ;
#11 = PLANE ( 'NONE',  #159 ) ;
#12 = DIRECTION ( 'NONE',  ( 0.0000000000000000000, 1.000000000000000000, 0.0000000000000000000 ) ) ;
#13 = DIRECTION ( 'NONE',  ( -0.0000000000000000000, 0.0000000000000000000, -1.000000000000000000 ) ) ;
#14 = DIRECTION ( 'NONE',  ( 1.000000000000000000, 0.0000000000000000000, -0.0000000000000000000 ) ) ;
#15 = DIRECTION ( 'NONE',  ( 0.0000000000000000000, 0.0000000000000000000, 1.000000000000000000 ) ) ;
#16 = PLANE ( 'NONE',  #160 ) ;
#17 = DIRECTION ( 'NONE',  ( 0.0000000000000000000, -0.0000000000000000000, 1.000000000000000000 ) ) ;
#18 = CARTESIAN_POINT ( 'NONE',  ( 201.0000000000000000, 0.0000000000000000000, 660.0000000000000000 ) ) ;
#19 = PLANE ( 'NONE',  #162 ) ;
#20 = CARTESIAN_POINT ( 'NONE',  ( 201.8000000000000100, -14.00000000000000000, 660.0000000000000000 ) ) ;
#21 = CARTESIAN_POINT ( 'NONE',  ( -201.8000000000000100, 0.0000000000000000000, 0.0000000000000000000 ) ) ;
#22 = CARTESIAN_POINT ( 'NONE',  ( -201.0000000000000000, 0.0000000000000000000, 660.0000000000000000 ) ) ;
#23 = DIRECTION ( 'NONE',  ( 0.0000000000000000000, 0.0000000000000000000, 1.000000000000000000 ) ) ;
#24 = DIRECTION ( 'NONE',  ( -1.000000000000000000, 0.0000000000000000000, 0.0000000000000000000 ) ) ;
#25 = PLANE ( 'NONE',  #163 ) ;
#26 = DIRECTION ( 'NONE',  ( 0.0000000000000000000, -0.0000000000000000000, 1.000000000000000000 ) ) ;
#27 = DIRECTION ( 'NONE',  ( 1.000000000000000000, 0.0000000000000000000, 0.0000000000000000000 ) ) ;
#28 = CARTESIAN_POINT ( 'NONE',  ( -201.0000000000000000, 0.0000000000000000000, 660.0000000000000000 ) ) ;
#29 = PLANE ( 'NONE',  #164 ) ;
#30 = DIRECTION ( 'NONE',  ( 0.0000000000000000000, 1.000000000000000000, 0.0000000000000000000 ) ) ;
#31 = CARTESIAN_POINT ( 'NONE',  ( -201.0000000000000000, 0.8000000000000000400, 660.0000000000000000 ) ) ;
#32 = DIRECTION ( 'NONE',  ( -1.000000000000000000, 0.0000000000000000000, 0.0000000000000000000 ) ) ;
#33 = DIRECTION ( 'NONE',  ( -0.0000000000000000000, 0.0000000000000000000, -1.000000000000000000 ) ) ;
#34 = CARTESIAN_POINT ( 'NONE',  ( 201.8000000000000100, -14.00000000000000000, 660.0000000000000000 ) ) ;
#35 = DIRECTION ( 'NONE',  ( -0.0000000000000000000, 0.0000000000000000000, -1.000000000000000000 ) ) ;
#36 = DIRECTION ( 'NONE',  ( 1.000000000000000000, 0.0000000000000000000, 0.0000000000000000000 ) ) ;
#37 = DIRECTION ( 'NONE',  ( 1.000000000000000000, 0.0000000000000000000, -0.0000000000000000000 ) ) ;
#38 = DIRECTION ( 'NONE',  ( 0.0000000000000000000, 0.0000000000000000000, 1.000000000000000000 ) ) ;
#39 = CARTESIAN_POINT ( 'NONE',  ( 0.0000000000000000000, 0.0000000000000000000, 0.0000000000000000000 ) ) ;
#40 =( NAMED_UNIT ( * ) PLANE_ANGLE_UNIT ( ) SI_UNIT ( $, .RADIAN. ) );
#41 =( LENGTH_UNIT ( ) NAMED_UNIT ( * ) SI_UNIT ( .MILLI., .METRE. ) );
#42 = DIRECTION ( 'NONE',  ( 0.0000000000000000000, 0.0000000000000000000, -1.000000000000000000 ) ) ;
#43 = CARTESIAN_POINT ( 'NONE',  ( 2.653208575337321500E-015, 0.0000000000000000000, 647.5000000000001100 ) ) ;
#44 = CARTESIAN_POINT ( 'NONE',  ( 1.734723475976807100E-015, 0.8000000000000000400, 17.49999999999999600 ) ) ;
#45 = CARTESIAN_POINT ( 'NONE',  ( 2.653208575337321500E-015, 0.8000000000000000400, 642.5000000000000000 ) ) ;
#46 = DIRECTION ( 'NONE',  ( -0.0000000000000000000, 1.000000000000000000, -0.0000000000000000000 ) ) ;
#47 = CARTESIAN_POINT ( 'NONE',  ( 1.734723475976807100E-015, 0.0000000000000000000, 14.99999999999999300 ) ) ;
#48 = DIRECTION ( 'NONE',  ( -0.0000000000000000000, -1.000000000000000000, -0.0000000000000000000 ) ) ;
#49 = CARTESIAN_POINT ( 'NONE',  ( 2.653208575337321500E-015, 0.8000000000000000400, 645.0000000000000000 ) ) ;
#50 = DIRECTION ( 'NONE',  ( 0.0000000000000000000, 0.0000000000000000000, 1.000000000000000000 ) ) ;
#51 = CARTESIAN_POINT ( 'NONE',  ( -201.0000000000000000, -14.00000000000000000, 660.0000000000000000 ) ) ;
#52 = APPROVAL_STATUS ( 'not_yet_approved' ) ;
#53 = APPLICATION_PROTOCOL_DEFINITION ( 'international standard', 'config_control_design', 1994, #54 ) ;
#54 = APPLICATION_CONTEXT ( 'configuration controlled 3d designs of mechanical parts and assemblies' ) ;
#55 = DATE_TIME_ROLE ( 'creation_date' ) ;
#56 = PERSON_AND_ORGANIZATION_ROLE ( 'creator' ) ;
#57 = CARTESIAN_POINT ( 'NONE',  ( -201.8000000000000100, 0.0000000000000000000, 660.0000000000000000 ) ) ;
#58 = APPROVAL_ROLE ( '' ) ;
#59 = DIRECTION ( 'NONE',  ( -0.0000000000000000000, -0.0000000000000000000, -1.000000000000000000 ) ) ;
#60 = DIRECTION ( 'NONE',  ( 0.0000000000000000000, 0.0000000000000000000, 1.000000000000000000 ) ) ;
#61 = CARTESIAN_POINT ( 'NONE',  ( 201.0000000000000000, 0.0000000000000000000, 0.0000000000000000000 ) ) ;
#62 = DIRECTION ( 'NONE',  ( -1.000000000000000000, 0.0000000000000000000, 0.0000000000000000000 ) ) ;
#63 = DIRECTION ( 'NONE',  ( -0.0000000000000000000, 0.0000000000000000000, -1.000000000000000000 ) ) ;
#64 = CARTESIAN_POINT ( 'NONE',  ( 1.734723475976807100E-015, 0.0000000000000000000, 17.49999999999999600 ) ) ;
#65 = PLANE ( 'NONE',  #204 ) ;
#66 = PLANE ( 'NONE',  #219 ) ;
#67 = DIRECTION ( 'NONE',  ( 0.0000000000000000000, 0.0000000000000000000, 1.000000000000000000 ) ) ;
#68 = DIRECTION ( 'NONE',  ( -1.000000000000000000, 0.0000000000000000000, 0.0000000000000000000 ) ) ;
#69 = DIRECTION ( 'NONE',  ( 0.0000000000000000000, 1.000000000000000000, 0.0000000000000000000 ) ) ;
#70 = PLANE ( 'NONE',  #165 ) ;
#71 = CARTESIAN_POINT ( 'NONE',  ( 1.734723475976807100E-015, 0.8000000000000000400, 14.99999999999999300 ) ) ;
#72 = DIRECTION ( 'NONE',  ( 0.0000000000000000000, -0.0000000000000000000, -1.000000000000000000 ) ) ;
#73 = DIRECTION ( 'NONE',  ( 0.0000000000000000000, -1.000000000000000000, 0.0000000000000000000 ) ) ;
#74 = CARTESIAN_POINT ( 'NONE',  ( -201.0000000000000000, -14.00000000000000000, 660.0000000000000000 ) ) ;
#75 = DIRECTION ( 'NONE',  ( -1.000000000000000000, 0.0000000000000000000, 0.0000000000000000000 ) ) ;
#76 = DIRECTION ( 'NONE',  ( 0.0000000000000000000, 1.000000000000000000, 0.0000000000000000000 ) ) ;
#77 = CARTESIAN_POINT ( 'NONE',  ( 0.0000000000000000000, 0.0000000000000000000, 660.0000000000000000 ) ) ;
#78 = CARTESIAN_POINT ( 'NONE',  ( -201.0000000000000000, 0.8000000000000000400, 660.0000000000000000 ) ) ;
#79 = PLANE ( 'NONE',  #166 ) ;
#80 = CARTESIAN_POINT ( 'NONE',  ( 201.0000000000000000, 0.0000000000000000000, 0.0000000000000000000 ) ) ;
#81 = CARTESIAN_POINT ( 'NONE',  ( 201.8000000000000100, -14.00000000000000000, 660.0000000000000000 ) ) ;
#82 = CARTESIAN_POINT ( 'NONE',  ( 201.8000000000000100, 0.8000000000000000400, 660.0000000000000000 ) ) ;
#83 = CARTESIAN_POINT ( 'NONE',  ( 201.8000000000000100, -14.00000000000000000, 0.0000000000000000000 ) ) ;
#84 = CARTESIAN_POINT ( 'NONE',  ( -201.8000000000000100, -14.00000000000000000, 660.0000000000000000 ) ) ;
#85 = CARTESIAN_POINT ( 'NONE',  ( -201.0000000000000000, -14.00000000000000000, 660.0000000000000000 ) ) ;
#86 = CARTESIAN_POINT ( 'NONE',  ( -201.0000000000000000, 0.0000000000000000000, 0.0000000000000000000 ) ) ;
#87 = CARTESIAN_POINT ( 'NONE',  ( -201.8000000000000100, 0.8000000000000000400, 0.0000000000000000000 ) ) ;
#88 = CARTESIAN_POINT ( 'NONE',  ( -201.8000000000000100, 0.8000000000000000400, 660.0000000000000000 ) ) ;
#89 = CARTESIAN_POINT ( 'NONE',  ( 201.0000000000000000, -14.00000000000000000, 660.0000000000000000 ) ) ;
#90 = CARTESIAN_POINT ( 'NONE',  ( -201.8000000000000100, -14.00000000000000000, 0.0000000000000000000 ) ) ;
#91 = CARTESIAN_POINT ( 'NONE',  ( 201.0000000000000000, 0.0000000000000000000, 660.0000000000000000 ) ) ;
#92 = CARTESIAN_POINT ( 'NONE',  ( 201.0000000000000000, -14.00000000000000000, 0.0000000000000000000 ) ) ;
#93 = DIRECTION ( 'NONE',  ( 1.000000000000000000, 0.0000000000000000000, 0.0000000000000000000 ) ) ;
#94 = DIRECTION ( 'NONE',  ( -1.000000000000000000, 0.0000000000000000000, 0.0000000000000000000 ) ) ;
#95 = CARTESIAN_POINT ( 'NONE',  ( 201.8000000000000100, 0.8000000000000000400, 0.0000000000000000000 ) ) ;
#96 = CARTESIAN_POINT ( 'NONE',  ( 201.8000000000000100, -14.00000000000000000, 0.0000000000000000000 ) ) ;
#97 = DIRECTION ( 'NONE',  ( -0.0000000000000000000, -0.0000000000000000000, -1.000000000000000000 ) ) ;
#98 = DIRECTION ( 'NONE',  ( 1.000000000000000000, 0.0000000000000000000, 0.0000000000000000000 ) ) ;
#99 = CARTESIAN_POINT ( 'NONE',  ( 201.8000000000000100, -14.00000000000000000, 660.0000000000000000 ) ) ;
#100 = DIRECTION ( 'NONE',  ( -0.0000000000000000000, -0.0000000000000000000, -1.000000000000000000 ) ) ;
#101 = CARTESIAN_POINT ( 'NONE',  ( -201.8000000000000100, 0.8000000000000000400, 660.0000000000000000 ) ) ;
#102 = CARTESIAN_POINT ( 'NONE',  ( -201.0000000000000000, 0.8000000000000000400, 0.0000000000000000000 ) ) ;
#103 = DIRECTION ( 'NONE',  ( -0.0000000000000000000, -1.000000000000000000, 0.0000000000000000000 ) ) ;
#104 = CARTESIAN_POINT ( 'NONE',  ( 201.8000000000000100, 0.0000000000000000000, 0.0000000000000000000 ) ) ;
#105 = DIRECTION ( 'NONE',  ( -0.0000000000000000000, -0.0000000000000000000, -1.000000000000000000 ) ) ;
#106 = CARTESIAN_POINT ( 'NONE',  ( 201.0000000000000000, 0.0000000000000000000, 660.0000000000000000 ) ) ;
#107 = CARTESIAN_POINT ( 'NONE',  ( 201.0000000000000000, -14.00000000000000000, 660.0000000000000000 ) ) ;
#108 = CARTESIAN_POINT ( 'NONE',  ( 201.0000000000000000, 0.0000000000000000000, 660.0000000000000000 ) ) ;
#109 = CARTESIAN_POINT ( 'NONE',  ( 201.8000000000000100, 0.8000000000000000400, 660.0000000000000000 ) ) ;
#110 = DIRECTION ( 'NONE',  ( 0.0000000000000000000, -1.000000000000000000, 0.0000000000000000000 ) ) ;
#111 = DIRECTION ( 'NONE',  ( -0.0000000000000000000, -0.0000000000000000000, -1.000000000000000000 ) ) ;
#112 = DIRECTION ( 'NONE',  ( -0.0000000000000000000, -1.000000000000000000, 0.0000000000000000000 ) ) ;
#113 = CARTESIAN_POINT ( 'NONE',  ( -201.0000000000000000, 0.0000000000000000000, 660.0000000000000000 ) ) ;
#114 = CARTESIAN_POINT ( 'NONE',  ( 201.8000000000000100, 0.0000000000000000000, 660.0000000000000000 ) ) ;
#115 = PERSON_AND_ORGANIZATION_ROLE ( 'design_owner' ) ;
#116 = MECHANICAL_CONTEXT ( 'NONE', #136, 'mechanical' ) ;
#117 = DIRECTION ( 'NONE',  ( 1.000000000000000000, 0.0000000000000000000, 0.0000000000000000000 ) ) ;
#118 = DIRECTION ( 'NONE',  ( 0.0000000000000000000, 0.0000000000000000000, 1.000000000000000000 ) ) ;
#119 = DIRECTION ( 'NONE',  ( -0.0000000000000000000, -1.000000000000000000, -0.0000000000000000000 ) ) ;
#120 = CARTESIAN_POINT ( 'NONE',  ( 2.653208575337321500E-015, 0.0000000000000000000, 645.0000000000000000 ) ) ;
#121 = CARTESIAN_POINT ( 'NONE',  ( -201.0000000000000000, -14.00000000000000000, 0.0000000000000000000 ) ) ;
#122 = CARTESIAN_POINT ( 'NONE',  ( -201.0000000000000000, 0.0000000000000000000, 660.0000000000000000 ) ) ;
#123 = DIRECTION ( 'NONE',  ( -0.0000000000000000000, 1.000000000000000000, -0.0000000000000000000 ) ) ;
#124 = DIRECTION ( 'NONE',  ( -0.0000000000000000000, -0.0000000000000000000, -1.000000000000000000 ) ) ;
#125 = CARTESIAN_POINT ( 'NONE',  ( -201.0000000000000000, 0.0000000000000000000, 0.0000000000000000000 ) ) ;
#126 = CARTESIAN_POINT ( 'NONE',  ( -201.0000000000000000, 0.0000000000000000000, 660.0000000000000000 ) ) ;
#127 = DIRECTION ( 'NONE',  ( -0.0000000000000000000, 1.000000000000000000, -0.0000000000000000000 ) ) ;
#128 = CARTESIAN_POINT ( 'NONE',  ( 201.8000000000000100, 0.0000000000000000000, 660.0000000000000000 ) ) ;
#129 = CARTESIAN_POINT ( 'NONE',  ( -201.0000000000000000, 0.0000000000000000000, 0.0000000000000000000 ) ) ;
#130 =( NAMED_UNIT ( * ) SI_UNIT ( $, .STERADIAN. ) SOLID_ANGLE_UNIT ( ) );
#131 = DIRECTION ( 'NONE',  ( -1.000000000000000000, 0.0000000000000000000, 0.0000000000000000000 ) ) ;
#132 = DIRECTION ( 'NONE',  ( -0.0000000000000000000, -0.0000000000000000000, -1.000000000000000000 ) ) ;
#133 = CARTESIAN_POINT ( 'NONE',  ( -201.0000000000000000, -14.00000000000000000, 660.0000000000000000 ) ) ;
#134 = DIRECTION ( 'NONE',  ( 0.0000000000000000000, -1.000000000000000000, 0.0000000000000000000 ) ) ;
#135 = CARTESIAN_POINT ( 'NONE',  ( -201.8000000000000100, -14.00000000000000000, 660.0000000000000000 ) ) ;
#136 = APPLICATION_CONTEXT ( 'configuration controlled 3d designs of mechanical parts and assemblies' ) ;
#137 = DIRECTION ( 'NONE',  ( -1.000000000000000000, 0.0000000000000000000, 0.0000000000000000000 ) ) ;
#138 = CARTESIAN_POINT ( 'NONE',  ( -201.0000000000000000, -14.00000000000000000, 0.0000000000000000000 ) ) ;
#139 = APPLICATION_PROTOCOL_DEFINITION ( 'international standard', 'config_control_design', 1994, #136 ) ;
#140 = DIRECTION ( 'NONE',  ( 0.0000000000000000000, 1.000000000000000000, 0.0000000000000000000 ) ) ;
#141 = DIRECTION ( 'NONE',  ( -0.0000000000000000000, -0.0000000000000000000, -1.000000000000000000 ) ) ;
#142 = CARTESIAN_POINT ( 'NONE',  ( -201.0000000000000000, 0.0000000000000000000, 660.0000000000000000 ) ) ;
#143 = EDGE_LOOP ( 'NONE', ( #294, #299, #298, #306 ) ) ;
#144 = EDGE_LOOP ( 'NONE', ( #282 ) ) ;
#145 = EDGE_LOOP ( 'NONE', ( #308, #310, #314, #304 ) ) ;
#146 = EDGE_LOOP ( 'NONE', ( #313, #320, #319, #303, #324, #330, #321, #322 ) ) ;
#147 = EDGE_LOOP ( 'NONE', ( #339, #337, #341, #340 ) ) ;
#148 = EDGE_LOOP ( 'NONE', ( #329, #323, #326, #325, #328, #327, #293, #251 ) ) ;
#149 = EDGE_LOOP ( 'NONE', ( #305 ) ) ;
#150 = EDGE_LOOP ( 'NONE', ( #283, #284, #285, #286 ) ) ;
#151 = EDGE_LOOP ( 'NONE', ( #281 ) ) ;
#152 = EDGE_LOOP ( 'NONE', ( #241 ) ) ;
#153 = EDGE_LOOP ( 'NONE', ( #279 ) ) ;
#154 = EDGE_LOOP ( 'NONE', ( #242 ) ) ;
#155 = EDGE_LOOP ( 'NONE', ( #290, #291, #292, #295 ) ) ;
#156 = EDGE_LOOP ( 'NONE', ( #287, #288, #289, #300 ) ) ;
#157 = EDGE_LOOP ( 'NONE', ( #316, #315, #312, #309 ) ) ;
#158 = EDGE_LOOP ( 'NONE', ( #239 ) ) ;
#159 = AXIS2_PLACEMENT_3D ( 'NONE', #20, #9, #8 ) ;
#160 = AXIS2_PLACEMENT_3D ( 'NONE', #18, #14, #13 ) ;
#161 =( GEOMETRIC_REPRESENTATION_CONTEXT ( 3 ) GLOBAL_UNCERTAINTY_ASSIGNED_CONTEXT ( ( #414 ) ) GLOBAL_UNIT_ASSIGNED_CONTEXT ( ( #41, #40, #130 ) ) REPRESENTATION_CONTEXT ( 'NONE', 'WORKASPACE' ) );
#162 = AXIS2_PLACEMENT_3D ( 'NONE', #22, #30, #17 ) ;
#163 = AXIS2_PLACEMENT_3D ( 'NONE', #28, #24, #23 ) ;
#164 = AXIS2_PLACEMENT_3D ( 'NONE', #31, #76, #26 ) ;
#165 = AXIS2_PLACEMENT_3D ( 'NONE', #77, #33, #32 ) ;
#166 = AXIS2_PLACEMENT_3D ( 'NONE', #74, #73, #72 ) ;
#167 = CC_DESIGN_PERSON_AND_ORGANIZATION_ASSIGNMENT ( #255, #431, ( #195 ) ) ;
#168 = APPROVAL ( #434, 'UNSPECIFIED' ) ;
#169 = AXIS2_PLACEMENT_3D ( 'NONE', #47, #48, #50 ) ;
#170 = AXIS2_PLACEMENT_3D ( 'NONE', #120, #119, #118 ) ;
#171 = AXIS2_PLACEMENT_3D ( 'NONE', #49, #46, #42 ) ;
#172 = AXIS2_PLACEMENT_3D ( 'NONE', #71, #69, #67 ) ;
#173 = AXIS2_PLACEMENT_3D ( 'NONE', #39, #38, #27 ) ;
#174 = EDGE_CURVE ( 'NONE', #407, #346, #238, .T. ) ;
#175 = EDGE_CURVE ( 'NONE', #351, #345, #234, .T. ) ;
#176 = CC_DESIGN_DATE_AND_TIME_ASSIGNMENT ( #250, #437, ( #195 ) ) ;
#177 = EDGE_CURVE ( 'NONE', #345, #346, #338, .T. ) ;
#178 = EDGE_CURVE ( 'NONE', #351, #407, #235, .T. ) ;
#179 = EDGE_CURVE ( 'NONE', #355, #346, #335, .T. ) ;
#180 = EDGE_CURVE ( 'NONE', #361, #361, #317, .T. ) ;
#181 = EDGE_CURVE ( 'NONE', #347, #349, #357, .T. ) ;
#182 = EDGE_CURVE ( 'NONE', #360, #360, #331, .T. ) ;
#183 = EDGE_CURVE ( 'NONE', #347, #356, #334, .T. ) ;
#184 = EDGE_CURVE ( 'NONE', #395, #345, #333, .T. ) ;
#185 = EDGE_CURVE ( 'NONE', #344, #349, #227, .T. ) ;
#186 = EDGE_CURVE ( 'NONE', #354, #344, #228, .T. ) ;
#187 = EDGE_CURVE ( 'NONE', #354, #347, #226, .T. ) ;
#188 = EDGE_CURVE ( 'NONE', #348, #344, #233, .T. ) ;
#189 = EDGE_CURVE ( 'NONE', #353, #348, #232, .T. ) ;
#190 = EDGE_CURVE ( 'NONE', #353, #354, #230, .T. ) ;
#191 = EDGE_CURVE ( 'NONE', #348, #352, #406, .T. ) ;
#192 = EDGE_CURVE ( 'NONE', #225, #352, #403, .T. ) ;
#193 = EDGE_CURVE ( 'NONE', #353, #225, #410, .T. ) ;
#194 = EDGE_CURVE ( 'NONE', #359, #359, #399, .T. ) ;
#195 = SECURITY_CLASSIFICATION ( '', '', #433 ) ;
#196 = EDGE_CURVE ( 'NONE', #358, #358, #394, .T. ) ;
#197 = EDGE_CURVE ( 'NONE', #352, #407, #397, .T. ) ;
#198 = EDGE_CURVE ( 'NONE', #225, #351, #396, .T. ) ;
#199 = EDGE_CURVE ( 'NONE', #356, #395, #391, .T. ) ;
#200 = CC_DESIGN_PERSON_AND_ORGANIZATION_ASSIGNMENT ( #256, #435, ( #205 ) ) ;
#201 = CC_DESIGN_PERSON_AND_ORGANIZATION_ASSIGNMENT ( #257, #432, ( #205 ) ) ;
#202 = APPROVAL ( #430, 'UNSPECIFIED' ) ;
#203 = CC_DESIGN_APPROVAL ( #202, ( #205 ) ) ;
#204 = AXIS2_PLACEMENT_3D ( 'NONE', #1, #63, #68 ) ;
#205 = PRODUCT_DEFINITION_FORMATION_WITH_SPECIFIED_SOURCE ( 'ANY', '', #223, .NOT_KNOWN. ) ;
#206 = AXIS2_PLACEMENT_3D ( 'NONE', #3, #62, #60 ) ;
#207 = CC_DESIGN_APPROVAL ( #212, ( #216 ) ) ;
#208 = CC_DESIGN_PERSON_AND_ORGANIZATION_ASSIGNMENT ( #269, #56, ( #216 ) ) ;
#209 = PRODUCT_RELATED_PRODUCT_CATEGORY ( 'detail', '', ( #223 ) ) ;
#210 = CC_DESIGN_DATE_AND_TIME_ASSIGNMENT ( #265, #55, ( #216 ) ) ;
#211 = EDGE_CURVE ( 'NONE', #395, #355, #401, .T. ) ;
#212 = APPROVAL ( #52, 'UNSPECIFIED' ) ;
#213 = EDGE_CURVE ( 'NONE', #356, #342, #388, .T. ) ;
#214 = EDGE_CURVE ( 'NONE', #342, #355, #386, .T. ) ;
#215 = EDGE_CURVE ( 'NONE', #349, #342, #384, .T. ) ;
#216 = PRODUCT_DEFINITION ( 'UNKNOWN', '', #205, #428 ) ;
#217 = CC_DESIGN_PERSON_AND_ORGANIZATION_ASSIGNMENT ( #277, #115, ( #223 ) ) ;
#218 = AXIS2_PLACEMENT_3D ( 'NONE', #5, #4, #6 ) ;
#219 = AXIS2_PLACEMENT_3D ( 'NONE', #128, #37, #35 ) ;
#220 = AXIS2_PLACEMENT_3D ( 'NONE', #7, #10, #15 ) ;
#221 = CC_DESIGN_APPROVAL ( #168, ( #195 ) ) ;
#222 = CC_DESIGN_SECURITY_CLASSIFICATION ( #195, ( #205 ) ) ;
#223 = PRODUCT ( 'Êðûøêà íà îòâåòâèòåëü Ò-îáðàçíûé âåðòèêàëüíûé áîêîâîé TDS_38326', 'Êðûøêà íà îòâåòâèòåëü Ò-îáðàçíûé âåðòèêàëüíûé áîêîâîé TDS_38326', '', ( #116 ) ) ;
#224 = PERSON ( 'UNSPECIFIED', 'UNSPECIFIED', 'UNSPECIFIED', ('UNSPECIFIED'), ('UNSPECIFIED'), ('UNSPECIFIED') ) ;
#225 = VERTEX_POINT ( 'NONE', #113 ) ;
#226 = LINE ( 'NONE', #57, #237 ) ;
#227 = LINE ( 'NONE', #21, #229 ) ;
#228 = LINE ( 'NONE', #135, #231 ) ;
#229 = VECTOR ( 'NONE', #12, 1000.000000000000000 ) ;
#230 = LINE ( 'NONE', #51, #404 ) ;
#231 = VECTOR ( 'NONE', #141, 1000.000000000000000 ) ;
#232 = LINE ( 'NONE', #133, #409 ) ;
#233 = LINE ( 'NONE', #138, #411 ) ;
#234 = LINE ( 'NONE', #108, #318 ) ;
#235 = LINE ( 'NONE', #106, #311 ) ;
#236 = VECTOR ( 'NONE', #134, 1000.000000000000000 ) ;
#237 = VECTOR ( 'NONE', #140, 1000.000000000000000 ) ;
#238 = LINE ( 'NONE', #61, #236 ) ;
#239 = ORIENTED_EDGE ( 'NONE', *, *, #194, .T. ) ;
#240 = CLOSED_SHELL ( 'NONE', ( #420, #421, #426, #417, #424, #415, #418, #419, #416, #425, #423, #422 ) ) ;
#241 = ORIENTED_EDGE ( 'NONE', *, *, #196, .T. ) ;
#242 = ORIENTED_EDGE ( 'NONE', *, *, #182, .T. ) ;
#243 = APPROVAL_DATE_TIME ( #244, #168 ) ;
#244 = DATE_AND_TIME ( #245, #246 ) ;
#245 = CALENDAR_DATE ( 2012, 9, 11 ) ;
#246 = LOCAL_TIME ( 12, 44, 37.00000000000000000, #247 ) ;
#247 = COORDINATED_UNIVERSAL_TIME_OFFSET ( 4, 0, .AHEAD. ) ;
#248 = APPROVAL_PERSON_ORGANIZATION ( #249, #168, #436 ) ;
#249 = PERSON_AND_ORGANIZATION ( #224, #278 ) ;
#250 = DATE_AND_TIME ( #252, #253 ) ;
#251 = ORIENTED_EDGE ( 'NONE', *, *, #179, .T. ) ;
#252 = CALENDAR_DATE ( 2012, 9, 11 ) ;
#253 = LOCAL_TIME ( 12, 44, 37.00000000000000000, #254 ) ;
#254 = COORDINATED_UNIVERSAL_TIME_OFFSET ( 4, 0, .AHEAD. ) ;
#255 = PERSON_AND_ORGANIZATION ( #224, #278 ) ;
#256 = PERSON_AND_ORGANIZATION ( #224, #278 ) ;
#257 = PERSON_AND_ORGANIZATION ( #224, #278 ) ;
#258 = APPROVAL_DATE_TIME ( #259, #202 ) ;
#259 = DATE_AND_TIME ( #260, #261 ) ;
#260 = CALENDAR_DATE ( 2012, 9, 11 ) ;
#261 = LOCAL_TIME ( 12, 44, 37.00000000000000000, #262 ) ;
#262 = COORDINATED_UNIVERSAL_TIME_OFFSET ( 4, 0, .AHEAD. ) ;
#263 = APPROVAL_PERSON_ORGANIZATION ( #264, #202, #429 ) ;
#264 = PERSON_AND_ORGANIZATION ( #224, #278 ) ;
#265 = DATE_AND_TIME ( #266, #267 ) ;
#266 = CALENDAR_DATE ( 2012, 9, 11 ) ;
#267 = LOCAL_TIME ( 12, 44, 37.00000000000000000, #268 ) ;
#268 = COORDINATED_UNIVERSAL_TIME_OFFSET ( 4, 0, .AHEAD. ) ;
#269 = PERSON_AND_ORGANIZATION ( #224, #278 ) ;
#270 = APPROVAL_DATE_TIME ( #271, #212 ) ;
#271 = DATE_AND_TIME ( #272, #273 ) ;
#272 = CALENDAR_DATE ( 2012, 9, 11 ) ;
#273 = LOCAL_TIME ( 12, 44, 37.00000000000000000, #274 ) ;
#274 = COORDINATED_UNIVERSAL_TIME_OFFSET ( 4, 0, .AHEAD. ) ;
#275 = APPROVAL_PERSON_ORGANIZATION ( #276, #212, #58 ) ;
#276 = PERSON_AND_ORGANIZATION ( #224, #278 ) ;
#277 = PERSON_AND_ORGANIZATION ( #224, #278 ) ;
#278 = ORGANIZATION ( 'UNSPECIFIED', 'UNSPECIFIED', '' ) ;
#279 = ORIENTED_EDGE ( 'NONE', *, *, #180, .T. ) ;
#280 = VECTOR ( 'NONE', #75, 1000.000000000000000 ) ;
#281 = ORIENTED_EDGE ( 'NONE', *, *, #182, .F. ) ;
#282 = ORIENTED_EDGE ( 'NONE', *, *, #180, .F. ) ;
#283 = ORIENTED_EDGE ( 'NONE', *, *, #215, .F. ) ;
#284 = ORIENTED_EDGE ( 'NONE', *, *, #181, .F. ) ;
#285 = ORIENTED_EDGE ( 'NONE', *, *, #183, .T. ) ;
#286 = ORIENTED_EDGE ( 'NONE', *, *, #213, .T. ) ;
#287 = ORIENTED_EDGE ( 'NONE', *, *, #185, .F. ) ;
#288 = ORIENTED_EDGE ( 'NONE', *, *, #186, .F. ) ;
#289 = ORIENTED_EDGE ( 'NONE', *, *, #187, .T. ) ;
#290 = ORIENTED_EDGE ( 'NONE', *, *, #188, .F. ) ;
#291 = ORIENTED_EDGE ( 'NONE', *, *, #189, .F. ) ;
#292 = ORIENTED_EDGE ( 'NONE', *, *, #190, .T. ) ;
#293 = ORIENTED_EDGE ( 'NONE', *, *, #214, .T. ) ;
#294 = ORIENTED_EDGE ( 'NONE', *, *, #191, .T. ) ;
#295 = ORIENTED_EDGE ( 'NONE', *, *, #186, .T. ) ;
#296 = ORIENTED_EDGE ( 'NONE', *, *, #211, .T. ) ;
#297 = ORIENTED_EDGE ( 'NONE', *, *, #199, .T. ) ;
#298 = ORIENTED_EDGE ( 'NONE', *, *, #193, .F. ) ;
#299 = ORIENTED_EDGE ( 'NONE', *, *, #192, .F. ) ;
#300 = ORIENTED_EDGE ( 'NONE', *, *, #181, .T. ) ;
#301 = ORIENTED_EDGE ( 'NONE', *, *, #213, .F. ) ;
#302 = ORIENTED_EDGE ( 'NONE', *, *, #214, .F. ) ;
#303 = ORIENTED_EDGE ( 'NONE', *, *, #183, .F. ) ;
#304 = ORIENTED_EDGE ( 'NONE', *, *, #177, .T. ) ;
#305 = ORIENTED_EDGE ( 'NONE', *, *, #194, .F. ) ;
#306 = ORIENTED_EDGE ( 'NONE', *, *, #189, .T. ) ;
#307 = ORIENTED_EDGE ( 'NONE', *, *, #196, .F. ) ;
#308 = ORIENTED_EDGE ( 'NONE', *, *, #179, .F. ) ;
#309 = ORIENTED_EDGE ( 'NONE', *, *, #192, .T. ) ;
#310 = ORIENTED_EDGE ( 'NONE', *, *, #211, .F. ) ;
#311 = VECTOR ( 'NONE', #97, 1000.000000000000000 ) ;
#312 = ORIENTED_EDGE ( 'NONE', *, *, #198, .F. ) ;
#313 = ORIENTED_EDGE ( 'NONE', *, *, #175, .T. ) ;
#314 = ORIENTED_EDGE ( 'NONE', *, *, #184, .T. ) ;
#315 = ORIENTED_EDGE ( 'NONE', *, *, #178, .F. ) ;
#316 = ORIENTED_EDGE ( 'NONE', *, *, #197, .T. ) ;
#317 = CIRCLE ( 'NONE', #172, 2.500000000000002200 ) ;
#318 = VECTOR ( 'NONE', #110, 1000.000000000000000 ) ;
#319 = ORIENTED_EDGE ( 'NONE', *, *, #199, .F. ) ;
#320 = ORIENTED_EDGE ( 'NONE', *, *, #184, .F. ) ;
#321 = ORIENTED_EDGE ( 'NONE', *, *, #193, .T. ) ;
#322 = ORIENTED_EDGE ( 'NONE', *, *, #198, .T. ) ;
#323 = ORIENTED_EDGE ( 'NONE', *, *, #197, .F. ) ;
#324 = ORIENTED_EDGE ( 'NONE', *, *, #187, .F. ) ;
#325 = ORIENTED_EDGE ( 'NONE', *, *, #188, .T. ) ;
#326 = ORIENTED_EDGE ( 'NONE', *, *, #191, .F. ) ;
#327 = ORIENTED_EDGE ( 'NONE', *, *, #215, .T. ) ;
#328 = ORIENTED_EDGE ( 'NONE', *, *, #185, .T. ) ;
#329 = ORIENTED_EDGE ( 'NONE', *, *, #174, .F. ) ;
#330 = ORIENTED_EDGE ( 'NONE', *, *, #190, .F. ) ;
#331 = CIRCLE ( 'NONE', #171, 2.500000000000057700 ) ;
#332 = VECTOR ( 'NONE', #94, 1000.000000000000000 ) ;
#333 = LINE ( 'NONE', #34, #280 ) ;
#334 = LINE ( 'NONE', #78, #343 ) ;
#335 = LINE ( 'NONE', #96, #332 ) ;
#336 = VECTOR ( 'NONE', #100, 1000.000000000000000 ) ;
#337 = ORIENTED_EDGE ( 'NONE', *, *, #177, .F. ) ;
#338 = LINE ( 'NONE', #107, #336 ) ;
#339 = ORIENTED_EDGE ( 'NONE', *, *, #174, .T. ) ;
#340 = ORIENTED_EDGE ( 'NONE', *, *, #178, .T. ) ;
#341 = ORIENTED_EDGE ( 'NONE', *, *, #175, .F. ) ;
#342 = VERTEX_POINT ( 'NONE', #95 ) ;
#343 = VECTOR ( 'NONE', #36, 1000.000000000000000 ) ;
#344 = VERTEX_POINT ( 'NONE', #90 ) ;
#345 = VERTEX_POINT ( 'NONE', #89 ) ;
#346 = VERTEX_POINT ( 'NONE', #92 ) ;
#347 = VERTEX_POINT ( 'NONE', #88 ) ;
#348 = VERTEX_POINT ( 'NONE', #121 ) ;
#349 = VERTEX_POINT ( 'NONE', #87 ) ;
#350 = VECTOR ( 'NONE', #59, 1000.000000000000000 ) ;
#351 = VERTEX_POINT ( 'NONE', #91 ) ;
#352 = VERTEX_POINT ( 'NONE', #86 ) ;
#353 = VERTEX_POINT ( 'NONE', #85 ) ;
#354 = VERTEX_POINT ( 'NONE', #84 ) ;
#355 = VERTEX_POINT ( 'NONE', #83 ) ;
#356 = VERTEX_POINT ( 'NONE', #82 ) ;
#357 = LINE ( 'NONE', #101, #350 ) ;
#358 = VERTEX_POINT ( 'NONE', #64 ) ;
#359 = VERTEX_POINT ( 'NONE', #43 ) ;
#360 = VERTEX_POINT ( 'NONE', #45 ) ;
#361 = VERTEX_POINT ( 'NONE', #44 ) ;
#362 = CYLINDRICAL_SURFACE ( 'NONE', #218, 2.500000000000002200 ) ;
#363 = SHAPE_DEFINITION_REPRESENTATION ( #427, #412 ) ;
#364 = FACE_OUTER_BOUND ( 'NONE', #152, .T. ) ;
#365 = CYLINDRICAL_SURFACE ( 'NONE', #220, 2.500000000000057700 ) ;
#366 = FACE_OUTER_BOUND ( 'NONE', #156, .T. ) ;
#367 = FACE_OUTER_BOUND ( 'NONE', #158, .T. ) ;
#368 = FACE_OUTER_BOUND ( 'NONE', #408, .T. ) ;
#369 = FACE_OUTER_BOUND ( 'NONE', #148, .T. ) ;
#370 = FACE_OUTER_BOUND ( 'NONE', #154, .T. ) ;
#371 = FACE_OUTER_BOUND ( 'NONE', #153, .T. ) ;
#372 = FACE_BOUND ( 'NONE', #405, .T. ) ;
#373 = FACE_BOUND ( 'NONE', #144, .T. ) ;
#374 = FACE_OUTER_BOUND ( 'NONE', #145, .T. ) ;
#375 = FACE_OUTER_BOUND ( 'NONE', #155, .T. ) ;
#376 = FACE_OUTER_BOUND ( 'NONE', #157, .T. ) ;
#377 = FACE_OUTER_BOUND ( 'NONE', #147, .T. ) ;
#378 = FACE_BOUND ( 'NONE', #151, .T. ) ;
#379 = FACE_OUTER_BOUND ( 'NONE', #143, .T. ) ;
#380 = FACE_OUTER_BOUND ( 'NONE', #146, .T. ) ;
#381 = VECTOR ( 'NONE', #93, 1000.000000000000000 ) ;
#382 = FACE_OUTER_BOUND ( 'NONE', #150, .T. ) ;
#383 = VECTOR ( 'NONE', #103, 1000.000000000000000 ) ;
#384 = LINE ( 'NONE', #102, #381 ) ;
#385 = VECTOR ( 'NONE', #105, 1000.000000000000000 ) ;
#386 = LINE ( 'NONE', #104, #383 ) ;
#387 = VECTOR ( 'NONE', #111, 1000.000000000000000 ) ;
#388 = LINE ( 'NONE', #109, #385 ) ;
#389 = VECTOR ( 'NONE', #112, 1000.000000000000000 ) ;
#390 = FACE_BOUND ( 'NONE', #149, .T. ) ;
#391 = LINE ( 'NONE', #114, #389 ) ;
#392 = VECTOR ( 'NONE', #98, 1000.000000000000000 ) ;
#393 = VECTOR ( 'NONE', #117, 1000.000000000000000 ) ;
#394 = CIRCLE ( 'NONE', #169, 2.500000000000002200 ) ;
#395 = VERTEX_POINT ( 'NONE', #81 ) ;
#396 = LINE ( 'NONE', #122, #393 ) ;
#397 = LINE ( 'NONE', #125, #392 ) ;
#398 = VECTOR ( 'NONE', #123, 1000.000000000000000 ) ;
#399 = CIRCLE ( 'NONE', #170, 2.500000000000057700 ) ;
#400 = VECTOR ( 'NONE', #124, 1000.000000000000000 ) ;
#401 = LINE ( 'NONE', #99, #387 ) ;
#402 = VECTOR ( 'NONE', #127, 1000.000000000000000 ) ;
#403 = LINE ( 'NONE', #126, #400 ) ;
#404 = VECTOR ( 'NONE', #131, 1000.000000000000000 ) ;
#405 = EDGE_LOOP ( 'NONE', ( #307 ) ) ;
#406 = LINE ( 'NONE', #129, #402 ) ;
#407 = VERTEX_POINT ( 'NONE', #80 ) ;
#408 = EDGE_LOOP ( 'NONE', ( #302, #301, #297, #296 ) ) ;
#409 = VECTOR ( 'NONE', #132, 1000.000000000000000 ) ;
#410 = LINE ( 'NONE', #142, #398 ) ;
#411 = VECTOR ( 'NONE', #137, 1000.000000000000000 ) ;
#412 = ADVANCED_BREP_SHAPE_REPRESENTATION ( '¦¨v°úð ýð þªòõªòøªõû¹ T-þñ¨ð÷ývù òõ¨ªøúðû¹ývù ñþúþòþù TDS_38326', ( #413, #173 ), #161 ) ;
#413 = MANIFOLD_SOLID_BREP ( 'Âûðåç-Âûòÿíóòü1', #240 ) ;
#414 = UNCERTAINTY_MEASURE_WITH_UNIT (LENGTH_MEASURE( 1.000000000000000100E-005 ), #41, 'distance_accuracy_value', 'NONE');
#415 = ADVANCED_FACE ( 'NONE', ( #375 ), #79, .T. ) ;
#416 = ADVANCED_FACE ( 'NONE', ( #380 ), #70, .F. ) ;
#417 = ADVANCED_FACE ( 'NONE', ( #378, #373, #382 ), #29, .T. ) ;
#418 = ADVANCED_FACE ( 'NONE', ( #379 ), #25, .F. ) ;
#419 = ADVANCED_FACE ( 'NONE', ( #390, #372, #376 ), #19, .F. ) ;
#420 = ADVANCED_FACE ( 'NONE', ( #377 ), #16, .F. ) ;
#421 = ADVANCED_FACE ( 'NONE', ( #374 ), #11, .T. ) ;
#422 = ADVANCED_FACE ( 'NONE', ( #370, #367 ), #365, .F. ) ;
#423 = ADVANCED_FACE ( 'NONE', ( #371, #364 ), #362, .F. ) ;
#424 = ADVANCED_FACE ( 'NONE', ( #366 ), #2, .T. ) ;
#425 = ADVANCED_FACE ( 'NONE', ( #369 ), #65, .T. ) ;
#426 = ADVANCED_FACE ( 'NONE', ( #368 ), #66, .T. ) ;
#427 = PRODUCT_DEFINITION_SHAPE ( 'NONE', 'NONE',  #216 ) ;
#428 = DESIGN_CONTEXT ( 'detailed design', #54, 'design' ) ;
#429 = APPROVAL_ROLE ( '' ) ;
#430 = APPROVAL_STATUS ( 'not_yet_approved' ) ;
#431 = PERSON_AND_ORGANIZATION_ROLE ( 'classification_officer' ) ;
#432 = PERSON_AND_ORGANIZATION_ROLE ( 'creator' ) ;
#433 = SECURITY_CLASSIFICATION_LEVEL ( 'unclassified' ) ;
#434 = APPROVAL_STATUS ( 'not_yet_approved' ) ;
#435 = PERSON_AND_ORGANIZATION_ROLE ( 'design_supplier' ) ;
#436 = APPROVAL_ROLE ( '' ) ;
#437 = DATE_TIME_ROLE ( 'classification_date' ) ;
ENDSEC;
END-ISO-10303-21;
